Mae - This Time Is The Last Time Chords & Tabs

 

This Time Is The Last Time Chords & Tabs

Mae Chords & Tabs

Version: 1 Type: Tab 0 ratings
1 star 2 stars 3 stars 4 stars 5 stars
comments

This Time Is The Last Time Tab

www.whatismae.com
www.toothandnail.com

band: Mae
Song: This Time Is The Last Time
Album: Destination: Beautiful

p =pull off
~ =let ring


Into
-----------------------------------------------------------------------------|
-12---------------------------------12---------------------------------------|
-12--24x------9----------9----------12--24x------9---------12----------9-----|
-10----------10--4x------7--4x------10-----------10--4x----x---4x------7--8x-|
--0-----------8----------5-----------0-----------8---------10----------5-----|
-----------------------------------------------------------------------------|

Riff.1
-----------------------------------------|
----------------------------------0------|
--------------------------------------0--|
---2p0-----0----------------2------------|
-0------3-------------3--0---------------|
--------------3----1------------0--------|

(cont.)
----------------------------------0~-----|
-------------------------------------3~--|
--------------------------------2~-------|
-----2p0-----0-----------5~---0~---------|
--0-------3------------2~----------------|
----------------3----1~------------------|

[ Tab from: http://www.guitartabs.cc/tabs/m/mae/this_time_is_the_last_time_tab.html ]
Riff.2
---------------------------------------------------------------------------|
-12-------------------------------12---------------------------------------|
-12--16x-----9---------9----------12--24x------9---------12----------9-----|
-10---------10--4x-----7--4x------10----------10--4x-----x---4x------7--8x-|
-------------8---------5-----------------------8---------10----------5-----|
---------------------------------------------------------------------------|


Riff.3
----------------------------------------|
----------------------------------------|
--------------------------------7-------|
-3-------7------5-------3-------7-------|
-3--x16--7--x8--5--x8---3--x16--5--x10--|
-1-------5------3-------1-------5-------|


Riff.4
---------------------------------|
-12-----------------------12-----|
-12--16x-------9----------12--4x-|
-10-----------10--4x------10-----|
---------------8-----------------|
---------------------------------|
---------------------------------|

Outro
------------------------|
------------------------|
----------------------2-|
----2p0-----0------2--2-|
-0-------3---------0--0-|
---------------3--------|


Sequence:

Intro
Riff.1    2x
Riff.2    1x
Riff.3    1x

Riff.1    1x
Riff.3    2x
Riff.1    2x
Riff.4    1x
Riff.3    2x
Riff.1    1x

Outro
Comments