Mae - Suspension Chords & Tabs

 

Suspension Chords & Tabs

Mae Chords & Tabs

Version: 1 Type: Tab 0 ratings
1 star 2 stars 3 stars 4 stars 5 stars
comments

Suspension Tab

========================================================
-------------------(Mae - Suspension)-------------------
========================================================


This isnt complete although its most of what u hear.
Sorry, I couldnt figure out the other parts
(i tabbed this from listening to them on www.purevolume.com/mae)
ENJOY!
e-mail: markbaltazar@gmail.com

standard tuning: EADGBe


Intro
e|------6-----------------------------------|
B|--------6h8-------9-8-6-------------------|
G|---8-----------8---------8----------------|
D|--8-----------8---------------------------|(x4)
A|-6-----------6----------------------------|
E|------------------------------------------|


Post Chorus
e|------------------------------------------|
B|---------8-------9-------11---------------|
G|-7h8-7-----8-7-----8-7------8-7-----------|
D|-------8-------8-------8--------8---------|
A|------------------------------------------|
E|------------------------------------------|
(only after 2nd chorus)
e|------------------------------------------|
B|---------8-------9-------11---------------|
G|-7h8-7-----8-7-----8-7------8-7s10--------|
D|-------8-------8-------8------------------|
A|------------------------------------------|
E|------------------------------------------|


Solo
e|------6-----------------------------------|
B|--------6h8-------9-8-6-------------------|
G|---8-----------8---------8----------------|
D|--8-----------8---------------------------|
A|-6-----------6----------------------------|
E|------------------------------------------|
[ Tab from: http://www.guitartabs.cc/tabs/m/mae/suspension_tab.html ]
e|------6------------11---------------------|
B|--------6h8-----------11------------------|
G|---8-----------8--------------------------|
D|--8-----------8---------------------------|
A|-6-----------6----------------------------|
E|------------------------------------------|

e|------6-----------------------------------|
B|--------6h8-------9-8-6-------------------|
G|---8-----------8---------8----------------|
D|--8-----------8---------------------------|(x3)
A|-6-----------6----------------------------|
E|------------------------------------------|

e|------6------6-------6--------------------|
B|--------6h8-----6h8-----------------------|
G|---8---8-------8-------8------------------|
D|--8---------------------------------------|
A|-6----------------------------------------|
E|------------------------------------------|

e|------6---------------------66--66--6-----|
B|--------6h8-------9-8-6-----66--66--6-----|
G|---8-----------8---------8--88--88--8-----|
D|--8-----------8-------------88--88--8-----|
A|-6-----------6--------------66--66--6-----|
E|------------------------------------------|


outro
e|-11-10------------------------------------    ]
B|-------11----11----11---------------------    ]
G|-----------12----12-----13-12-10----------x3  ]
D|---------------------------------13-------    ]
A|------------------------------------------    ]
E|------------------------------------------    ]
(same as Post Chorus)                           ] play twice
e|------------------------------------------    ]
B|---------8-------9-------11---------------    ]
G|-7h8-7-----8-7-----8-7------8-7-----------    ]
D|-------8-------8-------8--------8---------    ]
A|------------------------------------------    ]
E|------------------------------------------    ]
^on last one play wtice

end on
e|---6---|
B|---6---|
G|---8---|
D|---8---|
A|---6---|
E|---6---|
Comments