Mae - Summertime Chords & Tabs

 

Summertime Chords & Tabs

Mae Chords & Tabs

Version: 1 Type: Tab 0 ratings
1 star 2 stars 3 stars 4 stars 5 stars
comments

Summertime Tab

band website - www.whatismae.com
Nate Reaves
Pretty good song...pretty sure most of it is right
Email me at Nate31985@aol.com for corrections

Intro
|----------------------------------------------------------|
|----------------------------------------------------------|
|----------------------------------------------------------|
|-----9--9-0-99-0-9-0--55555-------------------------------|
|-----9--9-0-99-0-9-0--55555-------------------------------|
|-----9--9-0-99-0-9-0--55555-------------------------------|


Verse
|-----------------------------------------------------------------------|
|-----------------------------------------------------------------------|
|-----------------------------------------------------------------------|
|--00--00000--00--00000--------*5---------------------------------------|  X4
|--00--00000--00--00000--*5-------*5------------------------------------|
|--00--00000--00--00000-----*5------------------------------------------|
PM ..  .....  ..  .....


|------------------------------------------------------------------|-2nd time|
|------------------------------------------------------------------|-End with|
|------------------------------------------------11-11-11-11-------|----9----|
|--99--99955-55555--------*5------00--00000--00---X--X--X--X-------|----X----|
|--99--99955-55555--*5-------*5---00--00000--00---9--9--9--9-------|----7----|
|--99--99955-55555-----*5---------00--00000--00--------------------|---------|
PM ..  ..... .....                ..  .....  ..


Chorus 1
|----------------------------------------------------------|
|----------------------------------------------------------|
|----------------------------------------------------------|
|-----9--9-0-99-0-9-0--55555-------------------------------|
|-----9--9-0-99-0-9-0--55555-------------------------------|
|-----9--9-0-99-0-9-0--55555-------------------------------|
[ Tab from: http://www.guitartabs.cc/tabs/m/mae/summertime_tab.html ]
Chorus 2
|----------------------------------------------------------|
|----------------------------------------------------------|
|-----------------------------77777------------------------|
|-----9--9-0-99-0-9-0--55555--77777------------------------|
|-----9--9-0-99-0-9-0--55555--55555------------------------|
|-----9--9-0-99-0-9-0--55555-------------------------------|



Bridge
|-------------------------------------|
|-----*7------------------------------|
|--*5----*7---------------------------|
|-----------*5-*5---------------------| X4
|-------------------------------------|
|-------------------------------------|


Drivin away....
|--------------------------------------------|
|--------------------------------------------|
|---------------------7---7------------------|
|---9---9----5---5---7-7-7-7-----------------| X4
|--9-9-9-9--5-5-5-5-5---5--------------------|
|-9---9----5---5-----------------------------|



|----------------------------------------------------------|
|----------------------------------------------------------|
|--------------------------9999999--------6666666----------|
|--9999999--5555555--0000--XXXXXXX--0000--XXXXXXX----------| X4
|--9999999--5555555--0000--7777777--0000--4444444----------|
|--9999999--5555555--0000-----------0000-------------------|


Go!!
|----------------------------------------------------------|
|----------------------------------------------------------|
|--------------------------9--976--67-141414---------------|
|--9999999--5555555--0000--X--XXX--XX-X-X-X----------------| X4
|--9999999--5555555--0000--7--754--45-121212---------------|
|--9999999--5555555--0000----------------------------------|


Outro
|----------------------------------------------------------|
|----------------------------------------------------------|
|-----------------------------77777------------------------|
|-----9--9-0-99-0-9-0--55555--XXXXX------------------------|
|-----9--9-0-99-0-9-0--55555--55555------------------------|
|-----9--9-0-99-0-9-0--55555-------------------------------|



PM - Palm mute
*  - Harmonics
Comments