Madside - Enemy Chords & Tabs

 

Enemy Chords & Tabs

Madside Chords & Tabs

Version: 1 Type: Tab

Enemy Tab

   
Ha! My second tab and no-one has submitted this so please enjoy! =)
Band: "Madside"
Song: "Enemy"
Album: "Self Titled"
Tabbed By: Jordan "Kutlass"
Tuning: Drop-Db (Db,Ab,Db,Gb,Bb,Eb)

Intro:

Eb-------------------------------------------------|
Bb-------------------------------------------------|  x2 (Distortion)
Gb-------------------------------------------------|
Db------7-3-------7-3-------7-3-------7-8----------|
Ab-------------------------------------------------|
Db--555------555-------111-------111---------------|


Eb------------------------------------------------------------------|
Bb------------------------------------------------------------------|  x2
Gb--------9-9-5555------9-9-5555------9-9-5555-------99-1010101010--| (Distor
Db--------7-7-3333------7-7-3333------7-7-3333-------77-8-8-8-8-8---|  tion)
Ab--555------------555------------111------------111----------------|
Db--555------------555------------111------------111----------------|

Verse:

Eb------------------------------------------------------------------|
Bb------------------------------------------------------------------|  x4
Gb------------------------------------------------------------------| (Distor
Db--------7-7-3333------7-7-3333------7-7-3333-------77-8-8-8-8-8---|  tion)
Ab--555------------555------------111------------111----------------|
Db--555------------555------------111------------111----------------|
(Palm mute untill on 2nd and 4th time on the 7788888 let loose palm mute.)

Chorus:

Eb--------------------------------------------|
Bb--------------------------------------------|
Gb-----------------------------------7777777--|
Db---555-888-33333-111-555-888-33333-xxxxxxx--|
Ab---555-888-33333-111-555-888-33333-5555555--|
Db---555-888-33333-111-555-888-33333----------|

Continued:

Eb--------------------------------------------|
Bb--------------------------------------------| x2 (Distortion)
Gb--------------------------------------------|
Db---555-888-33333-111-5-3-5-111-5-3-5-111----|
Ab---555-888-33333-111-5-3-5-111-5-3-5-111----|
Db---555-888-33333-111-5-3-5-111-5-3-5-111----|

Fill:

Eb--------------------------------------------|
Bb--------------------------------------------| x1 (Distorted)
Gb--------------------------------------------|
Db------7-3-------7-3-------7-3-------7-8-----|
Ab--------------------------------------------|
Db--555------555-------111-------111----------|

Verse Repeated:

Eb------------------------------------------------------------------|
Bb------------------------------------------------------------------|  x4
Gb------------------------------------------------------------------| (Distor
Db--------7-7-3333------7-7-3333------7-7-3333-------77-8-8-8-8-8---|  tion)
Ab--555------------555------------111------------111----------------|
Db--555------------555------------111------------111----------------|
(Palm mute untill on 2nd and 4th time on the 7788888 let loose palm mute.)

Chorus Repeated:
[ Tab from: http://www.guitartabs.cc/tabs/m/madside/enemy_tab.html ]
Eb--------------------------------------------|
Bb--------------------------------------------| (Distortion)
Gb-----------------------------------7777777--|
Db---555-888-33333-111-555-888-33333-xxxxxxx--|
Ab---555-888-33333-111-555-888-33333-5555555--|
Db---555-888-33333-111-555-888-33333----------|

Continued:

Eb-----------------------------------|
Bb-----------------------------------|
Gb-----------------------------------|
Db---555-888-33333-111-5-3-5-111-----|
Ab---555-888-33333-111-5-3-5-111-----|
Db---555-888-33333-111-5-3-5-111-----|

Eb--------------------------------------------|
Bb--------------------------------------------|
Gb-----------------------------------7777777--|
Db---555-888-33333-111-555-888-33333-xxxxxxx--|
Ab---555-888-33333-111-555-888-33333-5555555--|
Db---555-888-33333-111-555-888-33333----------|

Continued:

Eb--------------------------------------------|
Bb--------------------------------------------|
Gb--------------------------------------------|
Db---555-888-33333-111-5-3-5-111-5-3-5-111----|
Ab---555-888-33333-111-5-3-5-111-5-3-5-111----|
Db---555-888-33333-111-5-3-5-111-5-3-5-111----|

Bridge:

Eb---------------------------------------|
Bb---------------------------------------| x4 (Distortion)
Gb--------------------------777788-------|
Db--333-00-1111-000-3333-00-xxxxxx-------|
Ab--333-00-1111-000-3333-00-555566-------|
Db--333-00-1111-000-3333-00--------------|

Continued:

Eb--------------------------|
Bb--------------------------| x1 (Distortion)
Gb--------------------------|
Db--5-3-5-111--5-3-5-111----|
Ab--5-3-5-111--5-3-5-111----|
Db--5-3-5-111--5-3-5-111----|

Continued:

Eb-------------------------------------------------|
Bb-------------------------------------------------|  x1 (Distortion)
Gb-------------------------------------------------|
Db------7-3-------7-3-------7-3-------7-8----------|
Ab-------------------------------------------------|
Db--555------555-------111-------111---------------|


Eb--------------------------------------------------|
Bb--------------------------------------------------|
Gb--------9-9-5555------9-9-5555------9-9-5555------|
Db--------7-7-3333------7-7-3333------7-7-3333------|
Ab--555------------555------------111------------1--|
Db--555------------555------------111------------1--|

Chorus/Outro:

Eb--------------------------------------------|
Bb--------------------------------------------| (Distortion)
Gb-----------------------------------7777777--|
Db---555-888-33333-111-555-888-33333-xxxxxxx--|
Ab---555-888-33333-111-555-888-33333-5555555--|
Db---555-888-33333-111-555-888-33333----------|

Eb-----------------------------------|
Bb-----------------------------------|
Gb-----------------------------------|
Db---555-888-33333-111-5-3-5-111-----|
Ab---555-888-33333-111-5-3-5-111-----|
Db---555-888-33333-111-5-3-5-111-----|

Eb--------------------------------------------|
Bb--------------------------------------------|
Gb-----------------------------------7777777--|
Db---555-888-33333-111-555-888-33333-xxxxxxx--|
Ab---555-888-33333-111-555-888-33333-5555555--|
Db---555-888-33333-111-555-888-33333----------|

Eb-----------------------------------|
Bb-----------------------------------|
Gb-----------------------------------|
Db---555-888-33333-111-5-3-5-111-----|
Ab---555-888-33333-111-5-3-5-111-----|
Db---555-888-33333-111-5-3-5-111-----|

=) I hope you liked it please rate! :P Have any questions my e-mail is 
By the way... This tab should be 100% perfect.
http://www.madside.com/Default.aspx