Madrugada - Beautyproof Chords & Tabs

 

Beautyproof Chords & Tabs

Madrugada Chords & Tabs

Version: 2 Type: Bass Tab 0 ratings
1 star 2 stars 3 stars 4 stars 5 stars
comments

Beautyproof Bass Tab

Artist: Madrugada 
Song: Beautyproof
Album: Industrial Silence


Vers
G|----------------------------|
D|----------------------------|
A|5-5-5-5-5-5-5-5-5-5-0-1-----|
E|-----------------------1-2-3|


Refr.
[ Tab from: http://www.guitartabs.cc/tabs/m/madrugada/beautyproof_btab_ver_2.html ]
G|---------------------|
D|---------------------|
A|--------0-0-0-0-0-5-5|
E|1-1-1-1--------------|

I'm a newbie, so this tab surely has some mistakes, but it sounds good to me :) 
e-mail me with comments and such.
spike@nl.enitel.no
Comments