Madonna - Like A Prayer Chords & Tabs

 

Like A Prayer Chords & Tabs

Madonna Chords & Tabs

Version: 1 Type: Bass Tab

Like A Prayer Bass Tab

   
Title: Like a prayer
Artist: Madonna
Album: Like a Prayer
Tabber: Steph
Email: cyberbassist@hotmail.com


Just funny !  :) EnJoY!

Intro (four string in parenthesis)

    D C DD   CD  C DD    C
G|-----------------------------------------------------------------------|
D|-----------------------------------------------------------------------|
A|*(5-3-55---3h5-3-55----3)---------------------------------------------*|
E|*---------------------------------------------------------------------*|
B|--3-1-33---1h3-1-33---1------------------------------------------------|

Chorus
   F         C         Bb       A     D
G|-----------------------------------------------------------------------|
D|-----------------------------------------------------------------------|
A|-----------3-3-333--31-1-111-10-0--055-5-------------------------------|
E|-1-1-111--1------------------------------------------------------------|

[ Tab from: http://www.guitartabs.cc/tabs/m/madonna/like_a_prayer_btab.html ]
Verse
   Bb        F         C           D
G|-----------------------------------------------------------------------|
D|-----------------------------------------------------------------------|
A|-1-1-111--1----------3-3-333--3--5-5-555-5-----------------------------|
E|-----------1-1-111-1---------------------------------------------------|

   Bb       F         C
G|-----------------------------------------------------------------------|
D|-----------------------------------------------------------------------|
A|-1-1-111--1---------3-3-333-3---3-3-333-3------------------------------|
E|-----------1-1-111-1---------------------------------------------------|

end
                              ...call my name 3:26
                               E    A#  A   A#    C    C
G|---------------------------|-------------------------------------------|
D|---------------------------|------88-877-788--8h1010-------------------|
A|*(5-3-55---3h5-3-55----3)-*|-7-7-7-------------------------------------|
E|*-------------------------*|-------------------------8-8---------------|
B|--3-1-33---1h3-1-33---1----|-------------------------------------------|