Madonna - Dont Tell Me Chords & Tabs

 

Dont Tell Me Chords & Tabs

Madonna Chords & Tabs

Version: 1 Type: Tab 0 ratings
1 star 2 stars 3 stars 4 stars 5 stars
comments

Dont Tell Me Tab

#----------------------------------PLEASE NOTE---------------------------------#
#This file is the author's own work and represents their interpretation of the #
#song. You may only use this file for private study, scholarship, or research. #
#------------------------------------------------------------------------------#


Don't Tell Me
Madonna [Music]

Transcribed by TopcaT (topcat@bsod.co.uk)

Just the intro to Don't Tell Me by Madonna (the album version, not the
one from Letterman). It's hard to tell what it orignally sounded like
though as the track's been messed about with so much. Various bits of
the intro are played through the entire song, give or take a few
sections.

Enjoy,

	TopcaT


[ Tab from: http://www.guitartabs.cc/tabs/m/madonna/dont_tell_me_tab.html ]
e-------0h2-------|-----------------|-----------------|-----------------|
B-----3-----3-----|-------0---------|-----------------|-----------------|
G-----2-----------|-----0-----------|-------0---------|-----------------|
D-0-----------0---|-----2-----------|---0h2-----------|-------0---------|
A-----------------|-0---------------|-3------3--------|---0h2-----------|
E-----------------|-----------------|-----------------|-3-------3-------|

e-------0h2-------|-----------------|-----------------|-----------------|
B-----3-----3-----|-------0---------|-----------------|-----------------|
G-----2-----------|-----0-----------|-----------0-----|-----------------|
D-0-----------0---|-----2-----------|-2---2--/2---0h2-|-----------------|
A-----------------|-0---------------|-3---3-----------|-------0-0-0-----|
E-----------------|-----------------|-----------------|-3---3-----------|
Comments