Madonna - 4 Minutes Chords & Tabs

 

4 Minutes Chords & Tabs

Madonna Chords & Tabs

Version: 1 Type: Bass Tab 0 ratings
1 star 2 stars 3 stars 4 stars 5 stars
comments

4 Minutes Bass Tab

Timbalands Intro:

G|-----------------------------------------|
D|-----------------------------------------|
A|--6~----3--5~----1--3~----3--------------|
E|--------------------------------3~----6--| x 4

4th time:

G|---------------|
D|---------------|
A|---------------|
E|--3--3--3--/3--|


Verse Riff (Played most of the way through the song)
[ Tab from: http://www.guitartabs.cc/tabs/m/madonna/4_minutes_btab.html ]
G|---------------------------------------------------------7--5--7p5--3--|
D|-----5--3--5--------8--7--8p7--5-------5--3--5p3-----------------------|
A|--------------------------------------------------5--------------------|
E|--3-------------3-------------------3-----------------3----------------|


Chorus

G|-------------------------------------------|
D|-------------------------------------------|
A|--6~--------8~--------5~--------10~--------|
E|-------------------------------------------| x 4
Comments