Madness - My Girl Chords & Tabs

 

My Girl Chords & Tabs

Madness Chords & Tabs

Version: 1 Type: Bass Tab 0 ratings
1 star 2 stars 3 stars 4 stars 5 stars
comments

My Girl Bass Tab

Band: Madness
Song: My Girl
Album: One Step Beyond
Track: 2
Tabbed by: Cole from P.M.R.C. (http://www.thepmrc.cjb.net)
   -------  ----------------------------------
  |  KEY  |   \ = Slide down  /= slide up
   -------  --------------------

Intro: play 3x's
|---------------------------|
|---------------------------|
|-4-------------------0--2--|
|----------5----\2----------|
[ Tab from: http://www.guitartabs.cc/tabs/m/madness/my_girl_btab.html ]
Verse: play this 2x (The 2nd time, don't play a second 4 the first time)
|---------------------------------------------------------------------------|
|---------------------------------------------------------------------------|
|-4-4------4-4------0--------0-0------4--------4-4--------------------------|
|-------------------------------------------------------2--------2-2--------|

Chorus:
|---------------------------------------------------------------------
|---------------------------------------------------------------------
|-7-7-7-7-6-6-6-6-4-4-4-4-4-4-4-4-/9-9-9-9-7-7-7-7-6-6-6-6-6-6-6-6----
|---------------------------------------------------------------------

 Chrous Cont.
 --------------------------------------------------------------------------|
 --------------------------------------------------------------------------|
 -7-7-7-7-6-6-6-6-4-4-4-4-2-2-2-2---------------------------------2-2-2-2--|
 ---------------------------------5-5-5-5-4-4-4-4-2-2-2-2-0-0-0-0----------|

Verse 2x
Chrous
Verse 4x
Chrous
Intro 1x

And thats it! i can't believe i didn't find a tab for this! its so easy!
Comments