Madcap - Under Suspicion Chords & Tabs

 

Under Suspicion Chords & Tabs

Madcap Chords & Tabs

Version: 1 Type: Tab 0 ratings
1 star 2 stars 3 stars 4 stars 5 stars
comments

Under Suspicion Tab

   
Madcap | Under Suspicion

Hey guys! I tabbed the entire album. It's about 99% correct.
Some of it may be wrong, but I'm positive that the majority is correct.

Keep Dancin'

Intro:

E|--------------------------------------------------------------------------|
B|--------------------------------------------------------------------------|
G|----------------------------------9------------------9------------------9-|
D|-99999999999999999999999999999999-9-9999999999999999-9-9999999999999999-9-|
A|-99999999999999999999999999999999-7-9999999999999999-7-9999999999999999-7-|
E|-77777777777777777777777777777777-7-7777777777777777-7-7777777777777777-7-|

E|-------------------------------------------|
B|-------------------------------------------|
G|------------------9------------------11~---|
D|-9999999999999999-9-9999999999999999-11----|
A|-9999999999999999-7-9999999999999999--9----|
E|-7777777777777777-7-7777777777777777-------|

Verse:

E|------------------------------------------------------|
B|------------------------------------------------------|
G|----------------------------------999999-111111111111-|
D|-99999999999999999999999999999999-999999-111111111111-|
A|-99999999999999999999999999999999-777777--9-9-9-9-9-9-|
E|-77777777777777777777777777777777---------------------|

Pre-chorus:

E|-----------------------------------------------|
B|-----------------------------------------------|
G|-9999999-11111111111111-9999999-11111111111111-|
D|-9999999-11111111111111-9999999-11111111111111-|
A|-7777777--9-9-9-9-9-9-9-7777777--9-9-9-9-9-9-9-|
E|-----------------------------------------------|

('Cause when the radio's on...)
E|--------------------------------------|
B|--------------------------------------|
G|----------999999999999999999999999-11-|
D|-99999999-999999999999999999999999-11-|
A|-99999999-777777777777777777777777--9-|
E|-77777777-----------------------------|

Chorus:

E|------------------------|
B|------------------------|
G|----------9999-11111111-|
D|-99999999-9999-11111111-|
A|-99999999-7777--9-9-9-9-|
E|-77777777---------------|

Chorus to Verse Segway:

E|--------------------------------------------|
B|------5-8-5--------5-8-5--------5-8-5-------|
G|--5-7-------7--5-7-------7--5-7-------7-5~--|
D|--------------------------------------------|
A|--------------------------------------------|
E|--------------------------------------------|

Solo:

E|-------11-14-11----12b13-12b13-------1414141414-16-17171717-17p16p14-|
B|-12-14----------14-------------14------------------------------------|
G|---------------------------------------------------------------------|
D|---------------------------------------------------------------------|
A|---------------------------------------------------------------------|
E|---------------------------------------------------------------------|

E|-1212-11-------1212-11------14--14--14--14--14--14--14--14--14--14---|
B|---------1212----------1212---12--12--12--12--12--12--12--12--12--12-|
G|---------------------------------------------------------------------|
D|---------------------------------------------------------------------|
A|---------------------------------------------------------------------|
E|---------------------------------------------------------------------|

E|-------11-14-11----12b13-12b13-----14--14--14--14--14--14--14-|
B|-12-14----------14-------------14----12--12--12--12--12--12---|
G|--------------------------------------------------------------|
D|--------------------------------------------------------------|
A|--------------------------------------------------------------|
E|--------------------------------------------------------------|

Solo: Other guitar plays this 3x

E|---------------------------------------------------------|
B|---------------------------------------------------------|
G|------------999999999--11111111111111111111111111111111--|
D|--99999999--999999999--11111111111111111111111111111111--|
A|--99999999--777777777---9-9-9-9-9-9-9-9-9-9-9-9-9-9-9-9--|
E|--77777777-----------------------------------------------|


Lovesick

Intro:

E|---------------------|
B|---------------------|
G|--88--888--888--888--|
D|---------------------|
A|--66--666--666--666--|
E|---------------------|

Intro 2:

E|----------------------------------|
B|--8~---------------8~-------------|
G|--------8-7-5-0----------8-7-5-0--|
D|----------------------------------|
A|----------------------------------|
E|----------------------------------|

E|-------------------------|
B|--8-11-8-------8-11-8----|
G|---------8-7----------7--|
D|-------------------------|
A|-------------------------|
E|-------------------------|

Verse / Intro: I'm not sure if there is a guitar in the verse or if its power chords are not,
               but this sounds right. -- Play all chords 12x!

E|--6-------8---|
B|--8-------8---|
G|-(8)------8---|
D|-(8)----(10)--|
A|-(6)----(10)--|
E|---------(8)--|
    Eb      Cm

(It's been such...) Play all chords 8x!
E|--4------6---|
B|--4------6---|
G|--5------7---|
D|-(6)----(8)--|
A|-(6)----(8)--|
E|-(4)----(6)--|
    Ab     Eb

(It's been such...)
E|-------------------------|
B|--8-11-8-------8-11-8----|
G|---------8-7----------7--|
D|-------------------------|
A|-------------------------|
E|-------------------------|

Chorus: *=Play 12x "=Play 24x
    *    *    "
E|--6----4----6--|
B|--8----4----6--|
G|-(8)---5----7--|
D|-(8)--(6)--(8)-|
A|-(6)--(6)--(8)-|
E|------(4)--(6)-|
    Eb   Ab   Bb

(Too late... / Far away...)
E|------------------------|
B|------------------------|
G|------------------------|
D|--8----666-555-333-111--|
A|------------------------|
E|------------------------|

Post-chorus:

E|-----------------------------------|
B|-----------------------------------|
G|-----------------------------------|
D|--5~----3-5~----5-333-111-333-555--|
A|-----------------------------------|
E|-----------------------------------|

Bridge: *=Play 12x "=Play 24x

(Now day by day...)
      *      *      *      *
E|----8------6------6------4---|
B|----8------6------8------4---|
G|----8------7-----(8)-----5---|
D|--(10)----(8)----(8)----(6)--|
A|--(10)----(8)----(6)----(6)--|
E|--(-8)----(6)-----------(4)--|
      Cm     Bb     Eb     Ab

(It's not what it seems...)
    "
E|---6------6---|
B|---6------8---|
G|---7-----(8)--|
D|--(8)----(8)--|
A|--(8)----(6)--|
E|--(6)---------|
    Bb      Eb

Move Forward

Intro / Verse:

E|---------------------------|
B|---------------------------|
G|---------------77-77-77-77-|
D|-44-44--77-77--77-77-77-77-|
A|-44-44--77-77--55-55-55-55-|
E|-22-22--55-55--------------|

Chorus:

E|----------------------|
B|----------------------|
G|-------------77777777-|
D|-9999--7777--77777777-|
A|-9999--7777--55555555-|
E|-7777--5555-----------|

Post-chorus:

E|------------------------------|
B|------------15-------------15-|
G|-11--14--14-----11--14--14----|
D|------------------------------|
A|------------------------------|
E|------------------------------|

Solo: Other guitar play Intro / Verse

E|---------------------------------------------------------------|
B|---------------------------------------------------------------|
G|-11--14-------------------------------------------------14--11-|
D|---------14-12--11-9-7-6--4-4h6h7-6h7h9-7h9h10-9h10h12---------|
A|---------------------------------------------------------------|
E|---------------------------------------------------------------|

E|----14-16h17p16-14------------14-16h17p16-14----|
B|-14----------------17-14---14----------------17-|
G|------------------------------------------------|
D|------------------------------------------------|
A|------------------------------------------------|
E|------------------------------------------------|

E|----14-16h17p16-14-------------------------------|
B|-14----------------17-14--12-14h15p14p12--7--9p7-|
G|-------------------------------------------------|
D|-------------------------------------------------|
A|-------------------------------------------------|
E|-------------------------------------------------|

Somewhere In The City

Intro:

E|---------------------------------|
B|---------------------------------|
G|---------------------------12-11-|
D|---------------------------------|
A|--000-55-4-------0-555-77--10--9-|
E|-----------7-5-------------------|

Intro 2: Other guitar plays this

E|------------------------------|
B|------------------------------|
G|----------------777777777777--|
D|--777777777777--777777777777--|
A|--777777777777--555555555555--|
E|--555555555555----------------|

Verse: In ska rhythm

E|----------------------|
B|--55555555--77777777--|
G|--66666666--77777777--|
D|--77777777--77777777--|
A|----------------------|
E|----------------------|

Pre-chorus:

(New York, LA...)
E|---------------------------------------|
B|---------------------------------------|
G|--99999999--77777777-------------------|
D|--99999999--77777777--7777777777777777-|
A|--77777777--55555555--7777777777777777-|
E|----------------------5555555555555555-|

Chorus:

E|----------------------------------------------------------|
B|----------------------------------------------------------|
G|----------------777777777777--999999999999--777777777777--|
D|--777777777777--777777777777--999999999999--777777777777--|
A|--777777777777--555555555555--777777777777--555555555555--|
E|--555555555555--------------------------------------------|

Ending:

E|----------------|
B|----------------|
G|----------------|
D|----------------|
A|--000-55-4------|
E|-----------7-5--|

Under Suspicion

Intro:

E|--4----5----4----5--2--|
B|--5----5----5----5--2--|
G|--6----6----6----6--2--|
D|--6----7----6----7--4--|
A|--4----7----4----7--4--|
E|-------5---------5--2--|
    C#m  A    C#m  A  F#m

Intro 2:

E|-------------------|
B|-------------------|
G|-------------------|
D|------------4------|
A|--4---4-6-7---7-0--|
E|-------------------|

Verse:

E|----------5-5-5-5----------5-5-5-5----------5-5-5-5----------5-5----|
B|--5-5-5-5-5-5-5-5--5-5-5-5-5-5-5-5--5-5-5-5-5-5-5-5--5-5-5-5-5-5-2--|
G|--4-4-4-4----------4-4-4-4----------4-4-4-4----------4-4-4-4-----2--|
D|--------------------------------------------------------------------|
A|--------------------------------------------------------------------|
E|--------------------------------------------------------------------|

Chorus:

E|--5----2----5----2----5----7---8--|
B|--5----2----5----2----5----7---8--|
G|--6----2----6----2----6----7---8--|
D|--7----4----7----4----7----9--10--|
A|--7----4----7----4----7----9--10--|
E|--5----2----5----2----5----7---8--|
    A    F#m  A    F#m  A    Bm  Cm

Post-chorus:

E|--------------------|
B|--9--------10-13----|
G|----9-8-6--------9--|
D|--------------------|
A|--------------------|
E|--------------------|

Bridge:

(Decisions get made...)
E|----------4-4-5-5--|
B|--5-5-4-4-4-4-5-5--|
G|--6-6-4-4----------|
D|-------------------|
A|-------------------|
E|-------------------|

(Decisions get made...) --> 2:11
E|---------------------------|
B|---------------------------|
G|---------------------------|
D|---------6----6------------|
A|--4-6-7-----7---7-6-4-6-4--|
E|---------------------------|

(And now...)
E|--------------------|
B|--------------------|
G|--------------------|
D|--4----2----6----9--|
A|--4----2----6----9--|
E|--2----0----4----7--|

Post-chorus 2: Played by Guitar #3

E|--16-----------17-21-----|
B|-----17-16-14--------17--|
G|-------------------------|
D|-------------------------|
A|-------------------------|
E|-------------------------|

Ending:

E|---------------------------------|
B|---------------------------------|
G|--66--66--66--66--66--66--66--6--|
D|--66--66--66--66--66--66--66--6--|
A|--44--44--44--44--44--44--44--4--|
E|---------------------------------|

Youth Explosion

Intro:

E|-----------------------------------|
B|-----------------------------------|
G|--7-8-7-8-7-8-7-8-7-8-7-8-7-8-7-8--|
D|-----------------------------------|
A|-----------------------------------|
E|-----------------------------------|

Verse: x=Left-hand palm mute

E|-------------------------|
B|-------------------------|
G|--888-----xxx--xxx--xxx--|
D|--888--8--888--888--888--|
A|--666--8--888--888--888--|
E|-------6--666--666--666--|

(When you were young...)
E|----------------------------------------|
B|----------------------------------------|
G|--888----------------888----------------|
D|--888--888888888888--888--888888888888--|
A|--666--888888888888--666--888888888888--|
E|-------666666666666-------666666666666--|

Pre-chorus:

('Cause that was you...)
E|------------------------------|
B|------------------------------|
G|------------------------------|
D|--333333333333--666666666666--|
A|--333333333333--666666666666--|
E|--111111111111--444444444444--|

Chorus:

E|--------------------------------------------------------------------|
B|--------------------------------------------------------------------|
G|--888888888888----------------888888888888--------------------------|
D|--888888888888--666666666666--888888888888--8888--6666--5555--3333--|
A|--666666666666--666666666666--666666666666--8888--6666--5555--3333--|
E|----------------444444444444----------------6666--4444--3333--1111--|

E|--------------------------------------------------------------------|
B|--------------------------------------------------------------------|
G|--888888888888----------------888888888888--------------------8888--|
D|--888888888888--666666666666--888888888888--8888--3333--5555--8888--|
A|--666666666666--666666666666--666666666666--8888--3333--5555--6666--|
E|----------------444444444444----------------6666--1111--3333--------|

Bridge:
[ Tab from: http://www.guitartabs.cc/tabs/m/madcap/under_suspicion_tab.html ]
(On the radio...)
E|--------------------------------------------------------------|
B|--------------------------------------------------------------|
G|--------------------------------------------------------------|
D|--3--55--6-6--88--88--3--55--6-6--88--88--3--55--6-6--88--88--|
A|--3--55--6-6--88--88--3--55--6-6--88--88--3--55--6-6--88--88--|
E|--1--33--4-4--66--66--1--33--4-4--66--66--1--33--4-4--66--66--|

(Where atleast I know...)
E|-------------------|
B|-------------------|
G|----------------8--|
D|--888888888888--8--|
A|--888888888888--6--|
E|--666666666666-----|

Searching For Ground

Intro:

E|---------------------------------------------|
B|---------------------------------------------|
G|-------7---------7----9----7-----------------|
D|--7----7----7----7----9----7--7777777777777--|
A|--7----5----7----5----7----5--7777777777777--|
E|--5---------5-----------------5555555555555--|

Verse:

E|--------------------------------------------------|
B|--55-5--55-5--55-5--55-5--77-7--77-7--77-7--77-7--|
G|--66-6--66-6--66-6--66-6--77-7--77-7--77-7--77-7--|
D|--77-7--77-7--77-7--77-7--77-7--77-7--77-7--77-7--|
A|--77-7--77-7--77-7--77-7--55-5--55-5--55-5--55-5--|
E|--------------------------------------------------|

Pre-chorus:

(Go start looking...)
E|--------------------------------------------------------|
B|--------------------------------------------------------|
G|--99999999--77777777--99999999--77777777----------------|
D|--99999999--77777777--99999999--77777777--777777777777--|
A|--77777777--55555555--77777777--55555555--777777777777--|
E|------------------------------------------555555555555--|

Chorus:

E|--------------------------------------------------|
B|--------------------------------------------------|
G|--------7-77--9-99--9-99--------9-99--6-67--7-77--|
D|--7-77--7-77--9-99--9-99--7-77--9-99--6-67--7-77--|
A|--7-77--5-55--7-77--7-77--7-77--7-77--4-45--5-55--|
E|--5-55--------------------5-55--------------------|

Bridge:

(Time won't heal a thing...)
E|------------------------------------------|
B|------------------------------------------|
G|------------77777777--99999999------------|
D|--77777777--77777777--99999999--77777777--|
A|--44444444--55555555--77777777--77777777--|
E|--------------------------------55555555--|

Post-bridge: Play until chorus

E|--------------------------|
B|--------------------------|
G|--------7-77--9-99--9-99--|
D|--7-77--7-77--9-99--9-99--|
A|--7-77--5-55--7-77--7-77--|
E|--5-55--------------------|

Turnaround

Intro: Play 2x

E|------------------------------------------|
B|------2--------2---------------2----------|
G|--2-4---2--2-4---4-2--2-4-2-4----4-2-4-2--|
D|------------------------------------------|
A|------------------------------------------|
E|------------------------------------------|

Intro 2: Other guitar plays this

E|------------------------------------|
B|------------------------------------|
G|----------------77777777--99999999--|
D|--777777777777--77777777--99999999--|
A|--777777777777--55555555--77777777--|
E|--555555555555----------------------|

Verse:

E|----------------------------------------|
B|----------------------------------------|
G|----------------7-77--9-99--7-77--9-99--|
D|--777777777777--7-77--9-99--7-77--9-99--|
A|--777777777777--5-55--7-77--5-55--7-77--|
E|--555555555555--------------------------|

Pre-chorus:

E|-------------------------------------------|
B|-------------------------------------------|
G|------------77777777----------5h7h8p7p5----|
D|--99999999--77777777--777777------------7--|
A|--99999999--55555555--777777---------------|
E|--77777777------------555555---------------|

E|----------------------------------------|
B|----------------------------------------|
G|------------77777777--9--7--6--4--6--4--|
D|--99999999--77777777--------------------|
A|--99999999--55555555--7--5--4--2--4--2--|
E|--77777777------------------------------|


Turnaround

Intro: Play 2x

E|----------------------------------------|
B|------2--------2---------------2--------|
G|--2-4---2--2-4---4-2--2-4-2-4----4-2-4--|
D|----------------------------------------|
A|----------------------------------------|
E|----------------------------------------|

Intro 2: Other guitar plays this

E|------------------------------------|
B|------------------------------------|
G|----------------77777777--99999999--|
D|--777777777777--77777777--99999999--|
A|--777777777777--55555555--77777777--|
E|--555555555555----------------------|

Verse:

E|----------------------------------------|
B|----------------------------------------|
G|----------------7-77--9-99--7-77--9-99--|
D|--777777777777--7-77--9-99--7-77--9-99--|
A|--777777777777--5-55--7-77--5-55--7-77--|
E|--555555555555--------------------------|

Pre-chorus:

E|-------------------------------------------|
B|-------------------------------------------|
G|------------77777777----------5h7h8p7p5----|
D|--99999999--77777777--777777------------7--|
A|--99999999--55555555--777777---------------|
E|--77777777------------555555---------------|

E|----------------------------------------|
B|----------------------------------------|
G|------------77777777--9--7--6--4--6--4--|
D|--99999999--77777777--------------------|
A|--99999999--55555555--7--5--4--2--4--2--|
E|--77777777------------------------------|

Chorus:

E|------------------------------------|
B|------------------------------------|
G|----------------77777777--99999999--|
D|--777777777777--77777777--99999999--|
A|--777777777777--55555555--77777777--|
E|--555555555555----------------------|

Bridge:

(You're not happy...)
E|-------------------|
B|-------------------|
G|---------9~--------|
D|--7~-----9------7--|
A|--7------7------7--|
E|--5-------------5--|

Solo: Other guitar plays Chorus

E|----------------------------------------|
B|------2--------2---------------2--------|
G|--2-4---2--2-4---4-2--2-4-2-4----4-2-4--|
D|----------------------------------------|
A|----------------------------------------|
E|----------------------------------------|

E|---------------------------------4-5-4---|
B|------2--------2------2-3-2-3--5-------5-|
G|--2-4---2--2-4---4-2---------------------|
D|-----------------------------------------|
A|-----------------------------------------|
E|-----------------------------------------|

E|----4-5-4-7b9-5-7-5-7-9-7--|
B|--5------------------------|
G|---------------------------|
D|---------------------------|
A|---------------------------|
E|---------------------------|

It Won't Die

Intro: x=Palm-mute Play 3x!

E|---------------------|
B|---------------------|
G|--7777777--xxxxxxxx--|
D|-----------77777777--|
A|--5555555--77777777--|
E|-----------55555555--|

E|---------------------|
B|---------------------|
G|---------------------|
D|--5--4--7---5--4--7--|
A|--5--4--7---5--4--7--|
E|--3--2--5---3--2--5--|

Intro 2: Other guitar plays Verse

E|-----------------------|
B|--3333-----------------|
G|-------4-222-----------|
D|--------------5--4--7--|
A|--------------5--4--7--|
E|--------------3--2--5--|

Verse:

E|--------------------------------------------|
B|--------------------------------------------|
G|--77777777----------------------------------|
D|--77777777--77777777--5-55--4-44--77777777--|
A|--55555555--77777777--5-55--4-44--77777777--|
E|------------55555555--3-33--2-22--55555555--|

(But I've something...)
E|------------------------------------------|
B|------------------------------------------|
G|--77777777--------------------------------|
D|--77777777--77777777--99999999--55555555--|
A|--55555555--77777777--99999999--55555555--|
E|------------55555555--77777777--33333333--|

(I've got hope...)
E|----------------------------|
B|----------------------------|
G|--xxxxxxxxxxxxxxxxxxxxxxxx--|
D|--777777777777777777777777--|
A|--777777777777777777777777--|
E|--555555555555555555555555--|

Chorus:

E|------------------------------------------|
B|------------------------------------------|
G|--77777777--------------------------------|
D|--77777777--77777777--55555555--77777777--|
A|--55555555--77777777--55555555--77777777--|
E|------------55555555--33333333--55555555--|

Bridge:

(Get up, get out...)
E|----------------------------------------------------------|
B|----------------------------------------------------------|
G|----------------777777777777----------------777777777777--|
D|--999999999999--777777777777--999999999999--777777777777--|
A|--999999999999--555555555555--999999999999--555555555555--|
E|--777777777777----------------777777777777----------------|

Solo:

E|-------------------------------------------------------------|
B|--7b9-7p5h7p5p4----------------5--7b9--7p5-------------------|
G|----------------6------4-4-6-6-------------6-----------------|
D|-------------------6-6------------------------7--6--4--2--0--|
A|-------------------------------------------------------------|
E|-------------------------------------------------------------|

Solo: Other guitar plays this

E|------------------------------|
B|------------------------------|
G|------------------------------|
D|--999999999999--777777777777--|
A|--999999999999--777777777777--|
E|--777777777777--555555555555--|

End pre-chorus: x=Palm mute w/on and off left hand palm mute

(I've got something...)
E|------------------------------------------|
B|--xxxxxxxx--------------------------------|
G|--77777777--xxxxxxxx----------------------|
D|--77777777--77777777--99999999--55555555--|
A|--55555555--77777777--99999999--55555555--|
E|------------55555555--77777777--33333333--|

In My Head

Intro: Play 3x! /=Slide

E|--12121212--9--5h7--|
B|--12121212--9--5----|
G|--------------------|
D|--------------------|
A|--------------------|
E|--------------------|

E|----------------|
B|----------------|
G|--9999--6-------|
D|--9999--6--7/9--|
A|--7777--4--7/9--|
E|-----------5/7--|

Verse:

E|------------------------|
B|------------------------|
G|--9~--------------------|
D|--9---------11~-----9~--|
A|--7---------11------9---|
E|-------------9------7---|

Pre-chorus:

(Is it in my head...)
E|----------------|
B|----------------|
G|--9999--6-------|
D|--9999--6--7/9--|
A|--7777--4--7/9--|
E|-----------5/7--|

(telling the truth...)
E|---------------|
B|---------------|
G|--9------------|
D|--9--9--11--9--|
A|--7--6--11--9--|
E|---------9--7--|

Chorus:

E|--------------------------------------------|
B|--------------------------------------------|
G|--999999999999------------------------------|
D|--999999999999--1111111111111111--99999999--|
A|--777777777777--1111111111111111--99999999--|
E|-----------------9-9-9-9-9-9-9-9--77777777--|

Bridge:

(Time keeps counting down...)
E|---------------------|
B|---------------------|
G|------------------9--|
D|--7----11----9----9--|
A|--7----11----9----7--|
E|--5-----9----7-------|

Midnight Strikes

Intro / Verse:

E|--7-7-7-7--7-7-7-7--5-5-5-5--7-7-5-5--|
B|--8-8-8-8--7-7-7-7--5-5-5-5--7-7-5-5--|
G|--------------------------------------|
D|--------------------------------------|
A|--------------------------------------|
E|--------------------------------------|

Verse 2: Other guitar plays Intro / Verse

(It's hard to see / Life brings another day / Start over again...)
E|--7-----------7---------5----------------------|
B|----8-----------7---------5--------------------|
G|------------7---------5---------9---7-9-7---0--|
D|------9----------------------------------------|
A|-----------------------------------------------|
E|-----------------------------------------------|

Chorus:

(You know your heart...)
E|---------------------------------------------------------------------|
B|---------------------------------------------------------------------|
G|-----------------------------------5555555555555555-7777777777777777-|
D|-5555555555555555-9999999999999999-5555555555555555-7777777777777777-|
A|-5555555555555555-9999999999999999-3333333333333333-5555555555555555-|
E|-3333333333333333-7777777777777777-----------------------------------|

Post-chorus:

E|-------------------------|
B|-------------------------|
G|-----------------5~--7~--|
D|--5~--------9~---5---7---|
A|--5----5~---9----3---5---|
E|--3----2----7------------|

Solo: Other guitar plays Intro / Verse

E|-----------------------------------------------------------------|
B|-----8--10b-10b-10p8p7--9b-9-8p6p5--5p3h5p3-5-7-8-10-8-10-12-15--|
G|-7h9-------------------------------------------------------------|
D|-----------------------------------------------------------------|
A|-----------------------------------------------------------------|
E|-----------------------------------------------------------------|

E|----19----15-17-19-17b-17-15--|
B|-17-19-17---------------------|
G|------------------------------|
D|------------------------------|
A|------------------------------|
E|------------------------------|

Bridge:

(And when it's falling...)
E|----------------------------------------------------------------------|
B|----------------------------------------------------------------------|
G|------------------5555555555555555------------------------------------|
D|-9999999999999999-5555555555555555-55555555555555555------------------|
A|-9999999999999999-3333333333333333-55555555555555555-5555555555555555-|
E|-7777777777777777------------------33333333333333333-2222222222222222-|

E|----------------------------------------------------------------------|
B|----------------------------------------------------------------------|
G|------------------5555555555555555-------------------7777777777777777-|
D|-9999999999999999-5555555555555555-55555555555555555-7777777777777777-|
A|-9999999999999999-3333333333333333-55555555555555555-5555555555555555-|
E|-7777777777777777------------------33333333333333333------------------|

Ending: Play 2x!

E|-------------------------|
B|-------------------------|
G|-----------------5~--7~--|
D|--5~--------9~---5---7---|
A|--5----5~---9----3---5---|
E|--3----2----7------------|
Comments