Madball - Pride Chords & Tabs

 

Pride Chords & Tabs

Madball Chords & Tabs

Version: 1 Type: Bass Tab 0 ratings
1 star 2 stars 3 stars 4 stars 5 stars
comments

Pride Bass Tab

Intro:
G-------------------------|
D-------------------------|
A-------------------------|
E-00000000000000000000000- (build up)

Main riff/Chorus:
G-----------------------------------------------------------------------|
D-----------------------------------------------------------------------|
A-------------4-4444444/777-777-6-666666-444-6-666-1-111111-3-1-0-4-444-|
E-00000000000-----------------------------------------------------------|

Verse:
G-----------------------------|
D-----------------------------|
A-----------------------------|
E-0-0-0---0-0-0---0-0-0h1-1-1-|

Verse ending:
G--------------------------|
D--------------------------|
A---------------3-1-0-4-44-|
E-0-0-0---0-0-0------------|
[ Tab from: http://www.guitartabs.cc/tabs/m/madball/pride_btab.html ]
Bridge 1:
G-------------------------------------------------------|
D-------------------------------------------------------|
A-----------------------------------------------1--3-33-|
E-2-2-2-2-2-2-2-3-2-2-2-2-2-2-2-0-2-2-2-2-2-2-2---------|

Bridge 2:
G----------------------------------------------------------|
D----------------------------------------------------------|
A-----------------------------------------------3-1-0-4-44-|
E-2-2-2-2-2-2-2-3-2-2-2-2-2-2-2-0-2-2-2-2-2-2-2------------|

End:
G----------|
D----------|
A----------|
E---0~~~---|

Structure of the song:
Intro
Main riff (X2)
Verse (X3)
Verse ending (X1)
Verse (X3)
Verse ending (X1)
Chorus (X1)
Verse (X3)
Verse ending (X1)
Chorus (X1)
Bridge 1 (X1)
Bridge 2 (X1)
Chorus (X2)
End
Comments