Mad Capsule Markets - Island Chords & Tabs

 

Island Chords & Tabs

Mad Capsule Markets Chords & Tabs

Version: 4 Type: Tab 0 ratings
1 star 2 stars 3 stars 4 stars 5 stars
comments

Island Tab

   
Artist: The Mad Capsule Markets (Formally: Mad Capsule Market's)
Song: Island
Album: OSC-DIS 
Tuning: I think it's drop D tuning, but it sounds OK when in standard tuning.

Comments: This is a quite easy song to tab (and play) and I hope it will satisfy
all you Mad Capsule Markets Fans out there. I'm quite sure it's right and even
though it looks long, it's only made up of the same few bits over and over again.

This is a great song, although it's not one of the Mad Capsule Markets' best, it's good anyway.

Intro and verse:

A
-------------------------------------------
-------------------------------------------
----7---7---9---7-----7---7---9------7-----
---6---7---9---7-----6---7---9--9---7--7---
--5---7---9---7-----5---7---9------7-------
-------------------------------------------

B
-------------------------------------
-------------------------------------
---7---7---9---7-----7---7---9---7---
--6---7---9---7-----6---7---9---7----
-5---7---9---7-----5---7---9---7-----
--------------------------------------

A
-------------------------------------------
-------------------------------------------
----7---7---9---7-----7---7---9------7-----
---6---7---9---7-----6---7---9--9---7--7---
--5---7---9---7-----5---7---9------7-------
-------------------------------------------

C
-------------------------------------
-------------------------------------
-7---7---9---7-----7---7---9---7-----
--6---7---9---7-----6---7---9---7----
---5---7---9---7-----5---7---9---7---
-------------------------------------

A
-------------------------------------------
-------------------------------------------
----7---7---9---7-----7---7---9------7-----
---6---7---9---7-----6---7---9--9---7--7---
--5---7---9---7-----5---7---9------7-------
-------------------------------------------

D
---------------------------------------------------------------
---------------------------------------------------------------
-7------7------9------7---------7-------7-------9------7-------
--6--6---7--7---9--9---7--7------6--6----7--7----9--9---7--7---
---5-------7-----9------7----------5------7-------9------7-----
---------------------------------------------------------------

E
----------------------------------------------------------
----------------------------------------------------------
-7------7------9------7------7------7------9------7-------
--6--6---7--7---9--9---7--7---6--6---7--7---9--9---7--7---
---5------7------9------7------5------7------9------7-----
----------------------------------------------------------

B
-------------------------------------
-------------------------------------
---7---7---9---7-----7---7---9---7---
--6---7---9---7-----6---7---9---7----
-5---7---9---7-----5---7---9---7-----
-------------------------------------

B
-------------------------------------
-------------------------------------
---7---7---9---7-----7---7---9---7---
--6---7---9---7-----6---7---9---7----
-5---7---9---7-----5---7---9---7-----
-------------------------------------

C
-------------------------------------
-------------------------------------
-7---7---9---7-----7---7---9---7-----
--6---7---9---7-----6---7---9---7----
---5---7---9---7-----5---7---9---7---
-------------------------------------

F
-----------
-----------
---7---7---
--6---7----
-5---7-----
-----------

G
-5-5-5-5-5-5-5-5-5-5-5-5-7-7--5-5-5-5-5-5-5-5-5-5-5-5-7-7---
-7-7-7-7-7-7-7-7-7-7-7-7-9-9--7-7-7-7-7-7-7-7-7-7-7-7-9-9---
-7-7-7-7-7-7-7-7-7-7-7-7-9-9--7-7-7-7-7-7-7-7-7-7-7-7-9-9---
------------------------------------------------------------
------------------------------------------------------------
------------------------------------------------------------

G
-5-5-5-5-5-5-5-5-5-5-5-5-7-7--5-5-5-5-5-5-5-5-5-5-5-5-7-7---
-7-7-7-7-7-7-7-7-7-7-7-7-9-9--7-7-7-7-7-7-7-7-7-7-7-7-9-9---
-7-7-7-7-7-7-7-7-7-7-7-7-9-9--7-7-7-7-7-7-7-7-7-7-7-7-9-9---
------------------------------------------------------------
------------------------------------------------------------
------------------------------------------------------------

G
-5-5-5-5-5-5-5-5-5-5-5-5-7-7--5-5-5-5-5-5-5-5-5-5-5-5-7-7---
-7-7-7-7-7-7-7-7-7-7-7-7-9-9--7-7-7-7-7-7-7-7-7-7-7-7-9-9---
-7-7-7-7-7-7-7-7-7-7-7-7-9-9--7-7-7-7-7-7-7-7-7-7-7-7-9-9---
------------------------------------------------------------
------------------------------------------------------------
------------------------------------------------------------

G
-5-5-5-5-5-5-5-5-5-5-5-5-7-7--5-5-5-5-5-5-5-5-5-5-5-5-7-7---
-7-7-7-7-7-7-7-7-7-7-7-7-9-9--7-7-7-7-7-7-7-7-7-7-7-7-9-9---
-7-7-7-7-7-7-7-7-7-7-7-7-9-9--7-7-7-7-7-7-7-7-7-7-7-7-9-9---
------------------------------------------------------------
------------------------------------------------------------
------------------------------------------------------------

G
-5-5-5-5-5-5-5-5-5-5-5-5-7-7--5-5-5-5-5-5-5-5-5-5-5-5-7-7---
-7-7-7-7-7-7-7-7-7-7-7-7-9-9--7-7-7-7-7-7-7-7-7-7-7-7-9-9---
-7-7-7-7-7-7-7-7-7-7-7-7-9-9--7-7-7-7-7-7-7-7-7-7-7-7-9-9---
------------------------------------------------------------
------------------------------------------------------------
------------------------------------------------------------

H
-5-5-5-5-5-5-5-5-5-5-5-5-7-7--5-5-5-5-5-5-5-5-5-5-5-5-7-7--5---
-7-7-7-7-7-7-7-7-7-7-7-7-9-9--7-7-7-7-7-7-7-7-7-7-7-7-9-9--7---
-7-7-7-7-7-7-7-7-7-7-7-7-9-9--7-7-7-7-7-7-7-7-7-7-7-7-9-9--7---
---------------------------------------------------------------
---------------------------------------------------------------
---------------------------------------------------------------

I
-5--5-5---7--7-7---9--9--9---7--7-7---5--5-5---7--7-7---9--9--9----7--7-7---
-7--7-7---9--9-9---11-11-11--9--9-9---7--7-7---9--9-9---11-11-11---9--9-9---
-7--7-7---9--9-9---11-11-11--9--9-9---7--7-7---9--9-9---11-11-11---9--9-9---
----------------------------------------------------------------------------
----------------------------------------------------------------------------
----------------------------------------------------------------------------
[ Tab from: http://www.guitartabs.cc/tabs/m/mad_capsule_markets/island_tab_ver_4.html ]
J
-5--5-5---7--7-7---9---9--9----7--7-7---5--5-5---7--7-7---9---9--9---5--5-5---
-7--7-7---9--9-9---11--11-11---9--9-9---7--7-7---9--9-9---11--11-11--7--5-5---
-7--7-7---9--9-9---11--11-11---9--9-9---7--7-7---9--9-9---11--11-11--7--5-5---
------------------------------------------------------------------------------
------------------------------------------------------------------------------
------------------------------------------------------------------------------

I
-5--5-5---7--7-7---9--9--9---7--7-7---5--5-5---7--7-7---9--9--9----7--7-7---
-7--7-7---9--9-9---11-11-11--9--9-9---7--7-7---9--9-9---11-11-11---9--9-9---
-7--7-7---9--9-9---11-11-11--9--9-9---7--7-7---9--9-9---11-11-11---9--9-9---
----------------------------------------------------------------------------
----------------------------------------------------------------------------
----------------------------------------------------------------------------

I
-5--5-5---7--7-7---9--9--9---7--7-7---5--5-5---7--7-7---9--9--9----7--7-7---
-7--7-7---9--9-9---11-11-11--9--9-9---7--7-7---9--9-9---11-11-11---9--9-9---
-7--7-7---9--9-9---11-11-11--9--9-9---7--7-7---9--9-9---11-11-11---9--9-9---
----------------------------------------------------------------------------
----------------------------------------------------------------------------
----------------------------------------------------------------------------

K pm.    pm.    pm....     pm.    pm.    pm.    pm....     pm. 
-555-5--777-7--9-9-9--9---777-7--555-5--777-7--9-9-9--9---777-7---
-777-7--999-9--111111-11--999-9--777-7--999-9--111111-11--999-9---
-777-7--999-9--111111-11--999-9--777-7--999-9--111111-11--999-9---
------------------------------------------------------------------
------------------------------------------------------------------
------------------------------------------------------------------

I
-5--5-5---7--7-7---9--9--9---7--7-7---5--5-5---7--7-7---9--9--9----7--7-7---
-7--7-7---9--9-9---11-11-11--9--9-9---7--7-7---9--9-9---11-11-11---9--9-9---
-7--7-7---9--9-9---11-11-11--9--9-9---7--7-7---9--9-9---11-11-11---9--9-9---
----------------------------------------------------------------------------
----------------------------------------------------------------------------
----------------------------------------------------------------------------
         
G
-5-5-5-5-5-5-5-5-5-5-5-5-7-7--5-5-5-5-5-5-5-5-5-5-5-5-7-7---
-7-7-7-7-7-7-7-7-7-7-7-7-9-9--7-7-7-7-7-7-7-7-7-7-7-7-9-9---
-7-7-7-7-7-7-7-7-7-7-7-7-9-9--7-7-7-7-7-7-7-7-7-7-7-7-9-9---
------------------------------------------------------------
------------------------------------------------------------
------------------------------------------------------------

G
-5-5-5-5-5-5-5-5-5-5-5-5-7-7--5-5-5-5-5-5-5-5-5-5-5-5-7-7---
-7-7-7-7-7-7-7-7-7-7-7-7-9-9--7-7-7-7-7-7-7-7-7-7-7-7-9-9---
-7-7-7-7-7-7-7-7-7-7-7-7-9-9--7-7-7-7-7-7-7-7-7-7-7-7-9-9---
------------------------------------------------------------
------------------------------------------------------------
------------------------------------------------------------

G
-5-5-5-5-5-5-5-5-5-5-5-5-7-7--5-5-5-5-5-5-5-5-5-5-5-5-7-7---
-7-7-7-7-7-7-7-7-7-7-7-7-9-9--7-7-7-7-7-7-7-7-7-7-7-7-9-9---
-7-7-7-7-7-7-7-7-7-7-7-7-9-9--7-7-7-7-7-7-7-7-7-7-7-7-9-9---
------------------------------------------------------------
------------------------------------------------------------
------------------------------------------------------------

G
-5-5-5-5-5-5-5-5-5-5-5-5-7-7--5-5-5-5-5-5-5-5-5-5-5-5-7-7---
-7-7-7-7-7-7-7-7-7-7-7-7-9-9--7-7-7-7-7-7-7-7-7-7-7-7-9-9---
-7-7-7-7-7-7-7-7-7-7-7-7-9-9--7-7-7-7-7-7-7-7-7-7-7-7-9-9---
------------------------------------------------------------
------------------------------------------------------------
------------------------------------------------------------

G
-5-5-5-5-5-5-5-5-5-5-5-5-7-7--5-5-5-5-5-5-5-5-5-5-5-5-7-7---
-7-7-7-7-7-7-7-7-7-7-7-7-9-9--7-7-7-7-7-7-7-7-7-7-7-7-9-9---
-7-7-7-7-7-7-7-7-7-7-7-7-9-9--7-7-7-7-7-7-7-7-7-7-7-7-9-9---
------------------------------------------------------------
------------------------------------------------------------
------------------------------------------------------------

G
-5-5-5-5-5-5-5-5-5-5-5-5-7-7--5-5-5-5-5-5-5-5-5-5-5-5-7-7---
-7-7-7-7-7-7-7-7-7-7-7-7-9-9--7-7-7-7-7-7-7-7-7-7-7-7-9-9---
-7-7-7-7-7-7-7-7-7-7-7-7-9-9--7-7-7-7-7-7-7-7-7-7-7-7-9-9---
------------------------------------------------------------
------------------------------------------------------------
------------------------------------------------------------

H
-5-5-5-5-5-5-5-5-5-5-5-5-7-7--5-5-5-5-5-5-5-5-5-5-5-5-7-7--5---
-7-7-7-7-7-7-7-7-7-7-7-7-9-9--7-7-7-7-7-7-7-7-7-7-7-7-9-9--7---
-7-7-7-7-7-7-7-7-7-7-7-7-9-9--7-7-7-7-7-7-7-7-7-7-7-7-9-9--7---
---------------------------------------------------------------
---------------------------------------------------------------
---------------------------------------------------------------

A
-------------------------------------------
-------------------------------------------
----7---7---9---7-----7---7---9------7-----
---6---7---9---7-----6---7---9--9---7--7---
--5---7---9---7-----5---7---9------7-------
-------------------------------------------

B
-------------------------------------
-------------------------------------
---7---7---9---7-----7---7---9---7---
--6---7---9---7-----6---7---9---7----
-5---7---9---7-----5---7---9---7-----
-------------------------------------

A
-------------------------------------------
-------------------------------------------
----7---7---9---7-----7---7---9------7-----
---6---7---9---7-----6---7---9--9---7--7---
--5---7---9---7-----5---7---9------7-------
-------------------------------------------

I couldn't work out the solo bit except the middle bit that goes a little something like this:

L
----------------------------------------------------------------------------
----------------------------------------------------------------------------
----------------------------------------------------------------------------
-16-16-16-16-16-16-16-16-16-16-16-16--16-16-16-16-16-16-16-16-16-16-16-16---
-17-17-17-17-17-17-17-17-17-17-17-17--17-17-17-17-17-17-17-17-17-17-17-17---
-17-17-17-17-17-17-17-17-17-17-18-18--17-17-17-17-17-17-17-17-17-17-16-16---

M
----------------------------------------------------------------------------
----------------------------------------------------------------------------
----------------------------------------------------------------------------
-16-16-16-16-16-16-16-16-16-16-16-16--16-16-16-16-16-16-16-16-20-20-20-20---
-17-17-17-17-17-17-17-17-17-17-17-17--17-17-17-17-17-17-17-17-21-21-21-21---
-17-17-17-17-17-17-17-17-17-17-18-18--17-17-17-17-17-17-17-16-21-21-22-22---

N
-----------------
-----------------
-7---7---9---7---
--6---7---9------
---5---7---9-----
-----------------



That's it for now. Hope you found this a good tab,
Thankyou.

Daniel Mahony
Comments