Mad Capsule Markets - Island Chords & Tabs

 

Island Chords & Tabs

Mad Capsule Markets Chords & Tabs

Version: 1 Type: Bass Tab 0 ratings
1 star 2 stars 3 stars 4 stars 5 stars
comments

Island Bass Tab

                      Mad Capsule Markets - Island
                                OSC-DIS
Tabbed by Monkey_Guy
monkey_guy50@hotmail.com
[ Tab from: http://www.guitartabs.cc/tabs/m/mad_capsule_markets/island_btab.html ]
Intro/Verse/Chorus/Bridge                                                                        
G-----------------------------------------------------------------------
D-------------------------------------------6-----6--4-----4--2---------
A-----------------------------------------------------------------------
D---2-----2--4-----4--6-----6--4-----4h6p4------------------------------
                                                                        

           Heavy Bridge                                       Let ring after Heavy Bridge.                      
G---------|--------------------------------------------------|----------
D---2--0--|--------------------------------------------------|----------
A---------|--------------------------------------------------|----------
D---------|--2--2--2--2--2--2--1--1--2--2--2--2--2--2--1--1--|--7-------
                                                                        

That's about it! It's all I've got, so sorry if it's wrong, I don't even play bass.
Comments