Mad Capsule Markets - Bomb Idea Chords & Tabs

 

Bomb Idea Chords & Tabs

Mad Capsule Markets Chords & Tabs

Version: 1 Type: Tab 0 ratings
1 star 2 stars 3 stars 4 stars 5 stars
comments

Bomb Idea Tab

Artist: The Mad Capusule Markets
Song: Bomb Idea
Album: CiSTm KOnFLiqT
Tabbed by Tom Hackett (FoRx) forx_net@hotmail.com
Tuning: Drop D

Main

|----------------------------------------------|
|----------------------------------------------|
|----------------------------------------------|
|--2-------------------------------------------|
|--2-------------------------------------------|
|--2-------------------------------------------|

Main 2
[ Tab from: http://www.guitartabs.cc/tabs/m/mad_capsule_markets/bomb_idea_tab.html ]
|----------------------------------------------|
|----------------------------------------------|
|----------------------------------------------|
|--2--2--3--2--2--4----------------------------|
|--2--2--3--2--2--4----------------------------|
|--2--2--3--2--2--4----------------------------|

Chorus

|----------------------------------------------|
|----------------------------------------------|
|------9--6--7---------------------------------|
|--7---9--6--7---------------------------------|
|--7---7--4--5---------------------------------|
|--7-------------------------------------------|

Main x 30
Main 2 8
Chorus x 4
Main x 30
Main 2 x 8
Break
Main x 30
Main 2 x 8
Chorus x 8
Main x 30

Scary next...
Comments