Mad Caddies - The Gentleman Chords & Tabs

 

The Gentleman Chords & Tabs

Mad Caddies Chords & Tabs

Version: 2 Type: Bass Tab 0 ratings
1 star 2 stars 3 stars 4 stars 5 stars
comments

The Gentleman Bass Tab

the gentleman
Mad Caddies
duck and cover
tabbed by me


VERSE 1 (2X) 
     play all notes 8X
G|-----2X----|---|
D|:---------:|---|
A|:---3-----:|--*|
E|--5---3-1--|-5-| *let ring (!!play this note only the first time, play the other times a E|0|!!)


VERSE 2 
G|--------3X---------|------------|
D|:-----------------:|------------|
A|:-3-3-------------:|-----------*|
E|------3-3-1-1-1-1--|-1-1-1-3--5-| *let ring
[ Tab from: http://www.guitartabs.cc/tabs/m/mad_caddies/the_gentleman_btab_ver_2.html ]
COOL PART (3X)
G|-----3X----|-------|
D|:---------:|-------|
A|:-------3-:|-------|
E|--5-55-5---|-5-3-5-|


LITTLE BRIDGE
G|-----------|
D|-----------|
A|--*------*-|
E|-0------4--| *let ring

VERSE 1 (1X)
VERSE 2 (1X)

BRIDGE
G|-----------4X---------------|---|
D|:--------------------------:|---|
A|:-----3------3-33-3-3------:|--*|
E|-55-5---11-1----------33-3--|-5-| *guess what


VERSE (1X)
BRIDGE (1X)
COOL PART (2X)

comments?? mail 2 freak182@usa.com
Comments