Mad Caddies - The Belltower Chords & Tabs

 

The Belltower Chords & Tabs

Mad Caddies Chords & Tabs

Version: 1 Type: Tab 0 ratings
1 star 2 stars 3 stars 4 stars 5 stars
comments

The Belltower Tab

   
Belltower, The
Intro
  F       C      A
--------------------
--1------5-5-----5--
--2------5-5-----6--
--3------5-5-----7--
--3------3-3-----7--
--1--------------5--  x2

Verse
(slow upstroke)
 A		  F     C
--------------------------
--5--5--5--5--1--1--5--5--
--6--6--6--6--2--2--5--5--
--7--7--7--7--3--3--5--5--
--------------------------
--------------------------

Pre-chorus 
(...I look up to the mountain)
  A                 C   G
-----------------------------
--5-----5-----5-----5-5------
--6-----6-----6-----5-5-5-5--
--7-----7-----7-----5-5-5-5--
--------------------3-3-5-5--
------------------------3-3--
[ Tab from: http://www.guitartabs.cc/tabs/m/mad_caddies/the_belltower_tab.html ]
Chorus
(quick upstroke)
 C	   G       F           G
----------------------------------
-5-5-5-5-3-3-3-3-1-1-1-1-1-1-3-3--
-5-5-5-5-4-4-4-4-2-2-2-2-2-2-4-4--
-5-5-5-5-5-5-5-5-3-3-3-3-3-3-5-5--
----------------------------------
---------------------------------- x3, 

C	   G       F             G
----------------------------------
-5-5-5-5-3-3-3-3-1-1-1-1--1----3--
-5-5-5-5-4-4-4-4-2-2-2-2--2----4--
-5-5-5-5-5-5-5-5-3-3-3-3--3----5-- let these last two notes ring a bit
----------------------------------
----------------------------------

Outro
 F       C     A       F       C     E
----------------------------------------
-1-------5-5---5-------1-------5-5---9--
-2-------5-5---6-------2-------5-5---9--
-3-------5-5---7-------3-------5-5---9--
-3-------3-3---7-------3-------3-3---7-
-1-------------1-----------------------
Comments