Mad Caddies - Silence Chords & Tabs

 

Silence Chords & Tabs

Mad Caddies Chords & Tabs

Version: 1 Type: Bass Tab 0 ratings
1 star 2 stars 3 stars 4 stars 5 stars
comments

Silence Bass Tab

MAD CADDIES
SILENCE
tabbed by Spanky - spankydriscoll@hotmail.com
www.madcaddies.freehosting.net

INTRO
G---------------------------|-----------------------|
D---------------------------|-----------------------|
A----let-ring---------------|--3--3--3--3-----------|
E--1~~~~~~~~~~---/////////8-|----3--3--3--3--4-3-1--|


VERSES (0:10, 1:00)
G-------------|---------------------------------|
D-------------|-X3------------------------------|
A--------43---|-----3333-3--3--3--3--3----------|
E--1--34---43-|---------------3--3--3--3-4-3-1--|

[ Tab from: http://www.guitartabs.cc/tabs/m/mad_caddies/silence_btab.html ]
PRE-CHORUS (0:39, 1:38, 2:19)
G-------------------------------------------|
D-------------------------------------------|
A--44444444-33333333-44444444-3-3-3-3-43----|
E---------------------------------------43--|


CHORUS (0:49, 1:49, 2:29)
G----------------------------------------------------------|
D----------------------------------------------------------|
A-----------4-4----------4-------------4-4--3~~-3-33-33-3--|
E--1-1-11-1-----1-1-11-1---4--1-1-11-1---------------------|


BRIDGE (1:59)
G------------------------------------------------|
D------------------------------------------------|
A-----3---4-3-----3-3---3--3--3--3--3--44--------|
E-1-4---1-----1-4-----3------3-----3-----44-3-1--|

OUTRO (2:40)
G---------------------------------|
D---------------------------------|
A---------------------------3-----|
E-1-1-1111-1-1-1111-4-3-1-4--3-1--|
Comments