Mad Caddies - Preppy Girl Chords & Tabs

 

Preppy Girl Chords & Tabs

Mad Caddies Chords & Tabs

Version: 2 Type: Tab 0 ratings
1 star 2 stars 3 stars 4 stars 5 stars
comments

Preppy Girl Tab

this is such a funny ass song

tuning-standard-EADGBe

intro/outro

1----8-----8-----4-----3---------|
2---8-8---8-8---4-4---3-3--------|
3--9---9-9---9-5---5-4---4-------|
4--------------------------------|
5--------------------------------|
6-8-----8-----4-----3------------|

chourus

1--------------------------------|
2--------------------------------|
3--------------------------------|
4-5-xx---------------------------|
5-3-xx-6-x-5-6-5-6---------------|
6------4-x-3-4-3-4---------------|

bridge(hit every note)
[ Tab from: http://www.guitartabs.cc/tabs/m/mad_caddies/preppy_girl_tab_ver_2.html ]
1-----------------------------------------|
2-8-11-8-6-8-9-8--8-----------------------|
3----------------8-8-7-5-7-8-7--8-7-------|
4-----------------------------------------|
5-----------------------------------------|
6-----------------------------------------|

1-------------------------------------------------|
2-8-11-8-6-8-9-8--8------------9-8-6-8-9-8-6^-----|
3----------------8-8-7-5-7-8-7--------------------|
4-------------------------------------------------|
5-------------------------------------------------|
6-------------------------------------------------|

verse(strumming patturn not shown, ska upstokes)

1-8---8---4---3------------------|
2-8---8---4---3------------------|
3-9---9---5---4------------------|
4-10--10--6---5------------------|
5--------------------------------|
6--------------------------------|


hope you liked my tab, for questions, e-mail me at horny_devil183@hotmail.com
Comments