Mad Caddies - No Se Chords & Tabs

 

No Se Chords & Tabs

Mad Caddies Chords & Tabs

Version: 1 Type: Bass Tab 0 ratings
1 star 2 stars 3 stars 4 stars 5 stars
comments

No Se Bass Tab

   
'No Se'' -- Bass Tab
Performed by MAD CADDIES
From the album 'Quality Soft Core' on ? Records
Music and Lyrics by: Mad Caddies
(c)1997 ? Records
------------
Tabbed by: Ben Meyer (benm@oakweb.com)
Ska/Punk/311 Bass Tab Archive --http://members.aol.com/illihexill/index.html


INTRO:
=====
[ Tab from: http://www.guitartabs.cc/tabs/m/mad_caddies/no_se_btab.html ]
G:-----------------------------------------------
D:------------------------------------------------
A:-------------5-5-5-5---------------7-7-5-4-
E:-5-5-5-5-----------------5-5-5-5------------

FAST PART:
==========

G:---------------------------------------------------------------------------
D:----------------------------------------------------------------------------
A:--0-0-0-0-0-0--5-5-5-5-5-5-3-4-9-9-9-9-9-9-5-5-5-5-------------
E:---------------------------------------------------------------5-5-5-5--

THATS PRETTY MUCH IT!!!!!
Comments