Mad Caddies - Drinking For 11 Chords & Tabs

 

Drinking For 11 Chords & Tabs

Mad Caddies Chords & Tabs

Version: 1 Type: Tab 0 ratings
1 star 2 stars 3 stars 4 stars 5 stars
comments

Drinking For 11 Tab

   
MAD CADDIES - DRINKING FOR 11

INTRO
   F   A   Bb  F
E--1---5---6---1-------------|
B--1---5---6---1-------------|
G--2---6---7---2---acoustic--|
D--3---7---8---3------X2-----|
A--3---7---8---3-------------|
E--1---5---6---1-------------|

[ Tab from: http://www.guitartabs.cc/tabs/m/mad_caddies/drinking_for_11_tab.html ]
VERSES                  END OF VERSE (PRECHORUS)
   F   A    Bb   Bb     Bb Bb A  Bb C
E--x1--x5---x6---x6--|--6--6--5--6--8---|
B--x1--x5---x6---x6--|--6--6--5--6--8---|
G--x2--x6---x7---x7--|--7--7--6--7--9---|
D--x3--x7---x8---x8--|--8--8--7--8--10--|
A--------------------|--8--8--7--8--10--|
E--------------------|--6--6--5--6--8---|

CHORUS
   F   C    D    Bb
E--x1--x8---x9---x6--|
B--x2--x9---x10--x7--|
G--x3--x10--x12--x8--|
D--x3--x10--x12--x8--|
A--------------------|
E--------------------|
Comments