Mad Caddies - Drinking For 11 Chords & Tabs

 

Drinking For 11 Chords & Tabs

Mad Caddies Chords & Tabs

Version: 1 Type: Bass Tab 0 ratings
1 star 2 stars 3 stars 4 stars 5 stars
comments

Drinking For 11 Bass Tab

~ means hold note

Intro/Chorus (play soft)
G|-----------------------| x1 
D|-----------------------|
A|-----------------------| Play second time the acoustic repeats
E|--1----5----6----9-----|

Verse   
G|---------------------------------------------------------------| 
D|---------------------------------------------------------------|
A|-----------3-3------------7--------------8-8------------3-1----|3X
E|--1--1---1-------5--5---5---5---6--6---6-------3--3---3--------|

Pre-Chorus
G|-----------------------------------------------------------------------|
D|-----------------------------------------------------------------------|
A|-----------3-3------------7--------------8-8---------------------------|1X
E|--1--1---1-------5--5---5---5---6--6---6-------6--6--6--5--6--3---1----|
[ Tab from: http://www.guitartabs.cc/tabs/m/mad_caddies/drinking_for_11_btab.html ]
G|----------------------------------------------------|
D|----------------------------------------------------|
A|----------------------------------------------------|3X
E|--1--1--1--1--5--5--5--5--6--6--6--6--3--3--3--3----|

Chorus Ending  (You can't see through today...)
G|--------------------------------------------|
D|--------------------------------------------|1X
A|--------------------------------------------|
E|--1--1--1--1--5--5--5--5--6~----5~----3~----|

After Chorus Trumpet Part
G|--------------------------------------------|
D|--------------------------------------------|
A|--------------------------------------------|2X
E|--1--1---1--5--5---5--6--6---6--3--3---3----|

Ending
G|--------------------------------------| 
D|--------------------------------------|
A|--------------------------------------|1X
E|--1--1---1--5--5---5--6--6---6--1~----|
Comments