Mad Caddies - Distress Chords & Tabs

 

Distress Chords & Tabs

Mad Caddies Chords & Tabs

Version: 1 Type: Bass Tab 0 ratings
1 star 2 stars 3 stars 4 stars 5 stars
comments

Distress Bass Tab

Song: Distress
Album: Quality Softcore
Band: Mad Caddies
Bassist: Mark
Tabbed by: James Bradley

> means strum

Intro:
G-------------6-7------------6-7-9-7---------------
D----4-5--7-7-------4-5--7-7-----------------------
A--5--------------5--------------------------------
E--------------------------------------------------

G-------------6-7----------------------------------
D----4-5--7-7-------4-5--7-7-5-4-------------------
A--5--------------5--------------7-----------------
E--------------------------------------------------

Intro 2:
G--------------------------------------------------
D----4-7-5-4-----------2---4-7-5-4-----------------
A--5---------7-------2---5---------7-----44-7-5-4--
E---------------3--3------------------55----------5

End of Intro 2:
G--------------------------------------------------
D---------4---7-5-4----------4---7-5-4-------------
A--5---55---5-------7-----55---5-------7-----------
E---------------------5----------------------------
[ Tab from: http://www.guitartabs.cc/tabs/m/mad_caddies/distress_btab.html ]
Verse 1/Chorus:
G--------------------------------------------------
D----4---7-5-4-----------2-4-2------1---4-2-1------
A-55---5-------7-0-0--44-------0-22---2-------2----
E--------------------------------------------------

G-------4---5---6----------------------------------
D--------------------------------------------------
A----2----3---4------------------------------------
E-33-----------------------------------------------

Verse 2:
G--------4---5---6--------------------------------
D-------------------------------------------------
A-2----2---3---4-------4---7-5-4------------------
E---33--------------55---5-------5-2>-------------

G---------------------4---5---6-------------------
D----1---4-2-1------------------------------------
A-22---2-------2----2---3---4-------4---7-5-4-----
E----------------33--------------55---5-------5-2>

That's pretty much it.  I might be off a little in
a few places, but it should sound mostly right.
Any questions e-mail me at jrbradley@hotmail.com
Nate Rockwood showed me how to play the Chorus.

Comments