Mad Caddies - Crew Cut Chuck Chords & Tabs

 

Crew Cut Chuck Chords & Tabs

Mad Caddies Chords & Tabs

Version: 1 Type: Bass Tab 0 ratings
1 star 2 stars 3 stars 4 stars 5 stars
comments

Crew Cut Chuck Bass Tab

Crew Cut Chuck
Mad Caddies
Quality Soft Core
chris

VERSE

G:---------------------
D:---------------------
A:-3---3---3---3-----2-
E:---3---3---3---3-5---    X8

PRE-CHORUS
[ Tab from: http://www.guitartabs.cc/tabs/m/mad_caddies/crew_cut_chuck_btab.html ]
G:------------------------------|-------
D:------------------------------|-------
A:------------------------------|-8-7-5-
E:------------------------------|-------


CHORUS

G:-----------------
D:---3>-2----------
A:-3>-----3>-8-7-5-
E:-----------------   X3

Comments