Mad Caddies - Contraband Chords & Tabs

 

Contraband Chords & Tabs

Mad Caddies Chords & Tabs

Version: 1 Type: Tab 0 ratings
1 star 2 stars 3 stars 4 stars 5 stars
comments

Contraband Tab

-------------------------------------------------------------------------------
			     SONG NAME Contraband - Band NameMad Caddies
-------------------------------------------------------------------------------
Tabbed by:Me
Email:superpeter.r@web.de

Tuning:
[ Tab from: http://www.guitartabs.cc/tabs/m/mad_caddies/contraband_tab.html ]
intro
e|-------------------------|
B|-------------------------|
G|--------------77777------|
D|9-97-777------77777stop--|
A|9-97-777--x4--55555------|
E|7-75-555-----------------|
verse
e|---------------------------------|
B|---------------------------------|
G|--------------/77777777----------|
D|9-97-777------/77777777---allx4--|
A|9-97-777--x4--/55555555----------|
E|7-75-555------/------------------|
chorus
e|-----------------------------------------------------------------------------------|
B|-----------------------------------------------------------------------------------|
G|-----------------------------------------------------------------------------------|
D|-------/5--------------------------------------------------------------------------|
A|9-99---/5----x3--------------------------------------------------------------------|
E|7-77---/3--------------------------------------------------------------------------|

e|----------------------------------------------------------------------------------|
B|----------------------------------------------------------------------------------|
G|----------------------------------------------------------------------------------|
D|9------/7-------/5----------------------------------------------------------------|
A|9------/7-------/5----------------------------------------------------------------|
E|7------/5-------/3----------------------------------------------------------------|

e|-------------------------------------------------|
B|-------------------------------------------------|
G|-------------------------------------------------|
D|4------/5-------/--------------------------------|
A|4------/5-------/intro-with-solo-then-the-verse--|
E|2------/3-------/--------------------------------|
Comments