Mad Caddies - B Side Chords & Tabs

 

B Side Chords & Tabs

Mad Caddies Chords & Tabs

Version: 1 Type: Tab 0 ratings
1 star 2 stars 3 stars 4 stars 5 stars
comments

B Side Tab

   
band:MAD CADDIES  
song: B-SIDE
album: Rock The Plank
tabbed by: spanky
looks hard but it's only 3 basic riffs

INTRO
E--------------------------|
B---let them ring----X2----|
G--------------------------|
D--------------------------|
A--------------------------|
E--8--7--5--3--1--0--1--3--|

2ND ENDING

E--------------------|
B--------------------|
G--------------------|
D--------------------|
A--------------------|
E---5555555555555-3--|

VERSES

E----------------------------------------|
B----------------------------------------|
G-----(palm mute a little)---------------|
D----------------------------------------|
A-------------------------------------X4-|
E-5555555555555555--11111111-33333333----|


CHORUSES

E-----------------------------------------------------|
B---*--*--*--------*--*--*----let ring----------------|
G------------*----------------------------------------|
D-----------------------------------------------------|
A---3-----5-------3------5----------------------------|
E------5-----1--------5-----6-6-6-6-6-6--333333333----|

AFTER-CHORUS THINGIES
[ Tab from: http://www.guitartabs.cc/tabs/m/mad_caddies/b_side_tab.html ]
E----------------------------------------------------------------------|
B----------------------------------------------------------------------|
G----------------------------------------------------------------------|
D----------------------------------------------------------------------|
A-------------------X2-------------------------------------------------|
E--8-8-8-8-8-8-8-8-5-5--8-8-8-8-8-8-8-8-8-8-8-8-8-8-8-8-8--5-5-55-5-3//|
									  

INTRO again, but changed at end. (as shown below)---just before ending this thing shows up
 __________                                               __________
                 1st ending|                                              2nd ending|
E--------------------------|E-------------------------------------------------------|
B--------let ring----------|B--------let ring---------------------------------------|
G--------------------------|G-------------------------------------------------------|
D--------------------------|D-------------------------------------------------------|
A--------------------------|A-------------------------------------------------------|
E--8--7--5--3--1--0--1--3--|E--8--7--5--3--1--0--111111111111111--3333333333333333--|
Comments