Mad At Gravity - Walk Away Chords & Tabs

 

Walk Away Chords & Tabs

Mad At Gravity Chords & Tabs

Version: 5 Type: Tab 0 ratings
1 star 2 stars 3 stars 4 stars 5 stars
comments

Walk Away Tab

   
    _      _       _      ___            RATE
   | \    / |     / \     |  |           THIS
   |  \  /  |    / - \    | ___           TAB         
   |_|\\_/|_|ad /_/-\_\t  |__|ravity
            __        __      _
            \ \  /\  / /     / \ 
             \ \//\\/ /     / - \ 
              \__/\__/alk  /_/-\_\way   TAB
Hey,iv seen no really goood tabs the only thing im not sure
about on this is the verse..but try it this tabs in standard
tuning..hope you like it,rate this tab!thanks
Intro/Chorus
e--------------------------------------------------
b--------------------------------------------------
g-3-3-3-3/6-6-6-6-6/10-10-10-10-8-8-8-8/13-13-13-13
d-x-x-x-x-x-x-x-x-x-x--x---x--x-x--x--x--x--x--x--x
a-1-1-1-1/4-4-4-4-4/8--8---8--8-6-6-6-6/11-11-11-11
E--------------------------------------------------

e-------------------------------------------------
b-------------------------------------------------
g-7-7-7-7-6-6-6-6/10-10-10-3-3-3-3--------3-3-3-3-
d-x-x-x-x-x-x-x-x-x--x- x--x-x-x-x-6-6-6--x-x-x-x-
a-5-5-5-5-4-4-4-4/8--8--8--1-1-1-1-x-x-x--1-1-1-1-
E----------------------------------4-4-4----------

Verse
Guitar 1
e-------1-1-1-----------
b-1--------------4------
g---2--------------4----
d-----3-----------------
a-------------4---------
E---------------------3-

Guitar 2
P.M.ooooooooooooooooooooo
e------------------------
b-----------------2---2--
g-3-1-3-1---1---1---1---1
d---------3---3----------
a------------------------
E------------------------

Chorus

Pre-Verse(for 2nd verse)
e---------------------
b---1---1-------------
g----------------1----
d-3-------3----1------
a-1---6------4-------3
E-----4------2-------1

Verse(same as verse 1)
Chorus
[ Tab from: http://www.guitartabs.cc/tabs/m/mad_at_gravity/walk_away_tab_ver_5.html ]
Breakdown
e---------------------------------------
b---------------------------------------
g---------------------------------------
d-3-3-3-3-3-6-6-6-6-6-------------------
a-1-1-1-1-1-4-4-4-4-4--4-4-4-4-4-4-4-4-4
E----------------------2-2-2-2-2-2-2-2-2

e---------------------
b---1---1-------------
g----------------1----
d-3-------3----1------
a-1---6------4-------3
E-----4------2-------1

e---------------------------------------------
b---------------------------------------------
g---------------------------------------------
d-3-3-3-3h4-3-3-3-3h4-3-3-3-3-3h4-3-3-3-3-3-3-
a---------------------------------------------
E---------------------------------------------

"and you and I should walk away"(faintly played with words)
e------------------------1--6--
b-2----------4-----------------
g------------------------------
d------------------------------
a------------------------------
E------------------------------


Solo
e-6p4h6p4h6p4h6p4---4---4----4-----
b-----------------6---6----6---6-4-
g----------------------------------
d---------------------------------- (x5)
a----------------------------------
E----------------------------------

e-6p4h6p4h6p4h6p4--
b-----------------6~~
g------------------
d------------------
a------------------
E------------------

e----------------------------       e------
b----------------------------       b------
g-3p1h3p1h3p1h3p1---1---1----       g------
d-----------------3---3---3-1 (x4?) d-3/1--
a----------------------------       a------
E----------------------------       E------

Chorus

Ending
e---------------------------------------
b---------------------------------------
g---------------------------------------
d-3-3-3-3-3-6-6-6-6-6-------------------
a-1-1-1-1-1-4-4-4-4-4--4-4-4-4-4-4-4-4-4
E----------------------2-2-2-2-2-2-2-2-2

P.M.00000000000000000000000
e----------------------------
b----------------------------
g---------------------------3
d---------------------------3
a-5-5-5-5-5-5-5-7-7-7-7-7-7-1 Hold last chord
E-3-3-3-3-3-3-3-5-5-5-5-5-5--


Well that's it,if you have any corrections or comments,click the
correct tab button on the top,rate this tab it took a long time
See ya
Comments