Mad At Gravity - Walk Away Chords & Tabs

 

Walk Away Chords & Tabs

Mad At Gravity Chords & Tabs

Version: 1 Type: Tab 0 ratings
1 star 2 stars 3 stars 4 stars 5 stars
comments

Walk Away Tab

guitartabs.cc [http://www.guitartabs.cc]

Artist/Author: Mad at Gravity
Title: Walk Away
Album : Resonance
Tuning: Standard 
Transcribed by: Gerard Massey
Email: madatgravity_06@hotmail.com
[ Tab from: http://www.guitartabs.cc/tabs/m/mad_at_gravity/walk_away_tab.html ]
Hey everyone... i saw a lot of MAG tabs of walk away and saw that many
of them sounded wrong. thought i'd put out this tab... tell me wut
ya think. i think this sounds correct compared to starting the song
with the E5 chord... also i think it's in standard tuning... i tried
tabbing this off of the acoustic version. it's much easier to tab off
an acoustic version rather than electric :P. this is my first tab
btw. i didn't really want to bother writing the rhythms... i think you
can get it. email me if you think anythings wrong so i can correct it.

Intro/Chorus
e  -------------------------------------------------------------------
B  -------------------------------------------------------------------
G  3-----5----10-----8-----13-----7-----6----10-----------------------
D  3-----5----10-----8-----13-----7-----6----10-----8-----6-----8-----
A  1-----3-----8-----6-----11-----5-----4-----8-----8-----6-----8-----
E  1-----3-----8-----6-----11-----5-----4-----8-----6-----4-----6-----

Verse (I think this is the palm muted part):
e--------------------0----------
B-------------3--3----------2---
G------1-----------2----2-------
D-------------------------2-----
A----2------2-------------------
E--2------3---------------------
Comments