Mad At Gravity - In Vain Chords & Tabs

 

In Vain Chords & Tabs

Mad At Gravity Chords & Tabs

Version: 1 Type: Tab 0 ratings
1 star 2 stars 3 stars 4 stars 5 stars
comments

In Vain Tab

Mad At Gravity - In Vain
Tabbed by Ross Shroff (cool2h8@hotmail.com)

Intro:
(With some effect delay\echo maybe)

|--------1----6-4-6-4-4-2-2-1-------------------|
|-----2-----------------------------------------|
|--3--------------------------------------------|
|-----------------------------------------------|
|-----------------------------------------------|
|-----------------------------------------------| repeat as necessary

Bass Intro:
(not sure about the last 2 notes)

|-----------------------------------------------|
|-----------------------------------------------|
|-----------------------------------------------|
|--6----4-6----6----4-6---9---2---5--7----------|

Verse(x2): 
(Another effect, i think it's a long delay)
|--------1----6---4---2-1--|
|-----2--------------------|
|--3-----------------------|
|--------------------------|
|--------------------------|
|--------------------------|x3 then...
[ Tab from: http://www.guitartabs.cc/tabs/m/mad_at_gravity/in_vain_tab.html ]
|--------1----4---6---2-1-----------------------|
|-----2-----------------------------------------|
|--3--------------------------------------------|
|-----------------------------------------------|
|-----------------------------------------------|
|-----------------------------------------------| 

Chorus:
(Distortion. I think these are just notes but if they don't sound right
 to you just play power chords)

|------------------------------------|
|------------------------------------|
|------------------------------------|
|------------------------------------|
|--2-2-2-2-2-4-4-4-5-5-5-5-5-5-5-5---|
|------------------------------------| then...

|------------------------------|
|------------------------------|
|-------------------7--7--7----|
|-------------------7--7--7----|
|--2-2-2-2-2-4-4-4--5--5--5----|
|-------------------5--5--5----|

Bridge:
(This sounds OK but i don't think it's totally right.
 It's got delay or some effect)

|--------1----------------1---------------|
|-----2-----2~~--------2-----2--4~~-------|
|--3----------------3---------------------|
|-----------------------------------------|
|-----------------------------------------|
|-----------------------------------------|


That's all the main bits. Please e-mail me with any corrections or improvements.
cool2h8@hotmail.com
Comments