Mad At Gravity - Burn Acoustic Chords & Tabs

 

Burn Acoustic Chords & Tabs

Mad At Gravity Chords & Tabs

Version: 1 Type: Tab 0 ratings
1 star 2 stars 3 stars 4 stars 5 stars
comments

Burn Acoustic Tab

Hi, I've looked at loads of tabs for this song and they're all crap, altho they did lead me in the right direction so thanx for that. But I get really frustrated with people who tab out stuff which is so obviously wrong, So I decided to do it myself to help all you other mad at gravity fans out there.

So anyway, here it is.
There are two guitars (obviously)
The first guitar has standard tuning with a cappo on the 3rd fret. I've tabbed it therefore with the 3rd fret as open  or 0.



Guitar 1 Cappo 3rd Fret.

Riff 1 (Verse)
E-|-------------------------------:|
B-|--------1----------------------:|
G-|--2-----------0------0----2----:|
D-|------2-----2-----2-----2------:|
A-|----0-----0-----0-----0-----0--:|
E-|-------------------------------:|

Riff 2 (Chorus)
E-|---------------------------:|
B-|--3-----1-----0------------:|
G-|--------------------0------:|
D-|------2-----2-----2-----2--:|
A-|----0-----0-----0-----0----:|
E-|---------------------------:|

The second guitar is dropped quite a way, but it makes it really easy to play :o)

Intro -| Verse 
E------------------------------:|
B------------------------------:|
G------------------------------:|
C--0-------5------8------0-0---:|
G--0-------5------8------0-0---:|
C--0-------5------8------0-0---:|

Chorus		(Strum)
E---------------------------------------------------------------:|
B---------------------------------------------------------------:|
G---------------------------------------------------------------:|
C-X-X-X-X-X-X--8---------------5--------------0--------------3--:|
G-X-X-X-X-X-X--8---------------5--------------0--------------3--:|
C-X-X-X-X-X-X--8---------------5--------------0--------------3--:|

		      Set This Place on fire	   Watch the flames rise higher ect...


On the second Chorus, the second guitar continues to play the same chorus chords, but guitar one changes from playing riff 2 to playing chords along side guitar 2 half way through...
[ Tab from: http://www.guitartabs.cc/tabs/m/mad_at_gravity/burn_acoustic_tab.html ]
Guitar 1 	(Strum)
E-|---------------------------------------------:|
B-|---------------------------------------------:|
G-|----------------------7---------2---------5--:|
D-|------------5---------7---------2---------5--:|
A-|------------3---------5---------0---------3--:|
E-|------------1---------5---------0---------3--:|

..Feet Im kneeling   	With every... etc


Then we come to the bridge....
I play this with guitar 2 playing the lead through most of it

Guitar 2 (Bridge riff)
E--------------------------------------------------------------|
B--------------------------------------------------------------|
G----------------------------------------8P7-7--7\5-5--5\3-3---|
C---------10----------10/12-10-------7---7---7--7\5-5--5\3-3---|
G-----8-----------8------------12------------------------------|
C--8----8------8----8-------------0--------------------------0-|

E--------------------------------------------------------------|
B--------------------------------------------------------------|
G----------------------------------------8P7-7--7\3-3--3/5-5---|
C---------10----------10/12-10-------7---7---7--7\3-3--3/5-5---|
G-----8-----------8------------12------------------------------|
C--8----8------8----8-------------0--------------------------0-|

Repeat this one more time and then change to playing the chords of the chorus but only strum once for each bar apart from the last bar before it goes into the chorus where you strum repeatedly.

Guitar 1: Play this riff after guitar 2 has played the previous riff twice...

E-|-----------|-----------| Repeat it over untill the chorus starts again...
B-|-----------|-----------|
G-|-----------|-----------|
D-|-----3---5-|-----3---5-|
A-|---3---3---|---3---3---|
E-|-1---------|-1---------|


In the final part of the song, both guitars play the chorus chords untill the finish, with the odd variant which I can't be bothered to type.
Anyways I hope this helps, Its only about the second song I've tabbed so I hope you can follow it ok.
Comments