Macrosick - Under These Skies Chords & Tabs

 

Under These Skies Chords & Tabs

Macrosick Chords & Tabs

Version: 1 Type: Bass Tab 0 ratings
1 star 2 stars 3 stars 4 stars 5 stars
comments

Under These Skies Bass Tab

Macrosick - 'Under These Skies'
Demodisk 2003
www.macrosick.com


~ Let Ring

Intro x2 (second time through, do not play last Bb)

G---------------------------------------------------------------------|
D------------3-3-----------------------------1-1----------------------|
A---4-4-------------1-1--------5-5----4-4-------------1~--------------|
E---------------------------------------------------------------------|

Verses (repeat over and over in verses)
[ Tab from: http://www.guitartabs.cc/tabs/m/macrosick/under_these_skies_btab.html ]
G---------------------------------------------------------------------|
D---------------------------------------------------------------------|
A--0-1-1--0-1-1--0-1-1--0-1-0-2-2-1-----------------------------------|
E---------------------------------------------------------------------|

Chorus

G--------------------------------------------------------------------|
D------------3-3-3----------------------------1-1-1------------------|
A---4-4-4-----------1-1-1-----5-5-5---4-4-4------------0-1-1-0-1-1-0-|
E--------------------------------------------------------------------|

Bridge x2 (that is a 2 and 1, not a twenty one, those nots are played fast)

G--------------------------------------------------------------------|
D--------------------------------------------------------------------|
A--2~----4-5~------21------------------------------------------------|
E--------------------3~-------6~---5~---4~----3-2~-------------------|

The bridge is not 100% correct.   Please email me of any corrections at anthony.dctalk@gmail.com
Comments