Machine Head - The Blood The Sweat The Tears Chords & Tabs

 

The Blood The Sweat The Tears Chords & Tabs

Machine Head Chords & Tabs

Version: 3 Type: Bass Tab 0 ratings
1 star 2 stars 3 stars 4 stars 5 stars
comments

The Blood The Sweat The Tears Bass Tab

   
Title  : The blood, the sweat, the tears 
Artist : Machine Head
album  : Hellalive!
Tuning : (Low to high) B F# B E

I cover this song in my Band and its perfect with the hellalive CD so nothign should be wrong enjoy!!

Chorus
E :----------------------------------------||
B :----------------------------------------||
F#:----------------------------------------||
B :-3-1-0---3-0-1---3-1-0---3-0-1~-4-------||

E :----------------------------------------||
B :----------------------------------------||
F#:----------------------------------------||
B :-3-1-0---3-0-1---3-1-0---3-0-1~-6-------||

4th time round hit the 6th fret 4 times you'll here it 

Verse
E :----------------------------------||
B :----------------------------------||
F#:----------------------------------||
B :-0-1-0~-------1-0~----------------||
 
simple timing just lsiten to it
[ Tab from: http://www.guitartabs.cc/tabs/m/machine_head/the_blood_the_sweat_the_tears_btab_ver_3.html ]
Change
E :--------------------------------------------||
B :--------------------------------------------||
F#:--------3--------3----55555-----------------||
B :-0-1-0------1-0-----------------------------||


Bridge
E :--------------------------------------------||
B :--------------------------------------------||
F#:---3-3-3-33-3-------------------------------||
B :----------------6-6-6-6-66-6----------------||

E :--------------------------------------------||
B :--------------------------------------------||
F#:--------3--------3--------------------------||
B :-0-1-0------1-0-----------------------------|| 
rest for the first few until the drums come back into the beat then bed the 5th
Ends with out the 5th fret at the end


Intro x1
Chorus x4
Verse x4
Change x4
Bridge x1
Change x2
Bridge x1
Chorus x4
Verse x4
Change x4
Bridge x1
Chorus x4
End x4
Variation 1 x8
Bridge x4
Chorus x4
Ending x4

if anything is wrong it migth be because i play a 5 string and i've tabbed for a four
string but every part of this is where it should be maybe 2 frets out occassionally sometimes
Comments