Machine Head - Take My Scars Chords & Tabs

 

Take My Scars Chords & Tabs

Machine Head Chords & Tabs

Version: 2 Type: Bass Tab 0 ratings
1 star 2 stars 3 stars 4 stars 5 stars
comments

Take My Scars Bass Tab

Machine Head - Take My Scars
bass tab by: Daniel "TenTonHammer" van Boeyen
             (daniel@icarus666.demon.nl)
From the album "The More Things Change"

Tuning: Drop C (CGCF)

I got bored so I decided to tab this one out. Listen to the song
for timing.

Main Riff:
F|------------------|-----------------|
C|------------------|-----------------|
G|------------------|-5/6-6-6-5/7-7-7-|
C|-0-2-1-0-22-1-0-1-|-----------------|

Verses: (We've been around for a thousand years, etc)
F|---------------------|
C|---------------------|
G|---------------------|
C|-0-0--0-00--0-00-3~~-|
[ Tab from: http://www.guitartabs.cc/tabs/m/machine_head/take_my_scars_btab_ver_2.html ]
Chorus: (Take my scars, etc)
F|---------------------|-------------|
C|---------------------|-------------|
G|-1-1--1-11--1-11-----|-------------|
C|-----------------2~~-|-5~~~~-5~~~~-|

1st end of chorus is main riff

2nd end of chorus:
F|-------------------| just pickscrape
C|-------------------| along with the
G|-------------------| guitar
C|-x-3-x-x3--x-3-x-3-|

Solo:
F|---------------------|
C|---------------------|
G|-1-1--1-11--1-11-----|
C|-----------------2~~-|

Bridge:
F|---------------------|
C|---------------------|
G|-----------------1~~-|
C|-2-2--2-22--2-22-----|

End with:
F|---------|
C|---------|
G|---------|
C|-0-2-1~~-|

that's it, easy song, don't forget to jump around and
act like you're out of your fucking mind while playing

* END *
Comments