Machine Head - None But My Own Chords & Tabs

 

None But My Own Chords & Tabs

Machine Head Chords & Tabs

Version: 3 Type: Tab 0 ratings
1 star 2 stars 3 stars 4 stars 5 stars
comments

None But My Own Tab

"NONE BUT MY OWN" - MACHINE HEAD
   From the Album "Burn my eyes"
   by sam@razalruh.ul.artinet.de

E-|----------------|-----------------------------1-|-------------------|
B-|----------------|-----------------------------1-|-------------------|
G-|----------------|-------------------------------|-------------------|
D-|-----2-3-2------|-------------------------------|--7--9--9-7--9-10--|
A-|---2-------2----|--2-2-2-2--2-2-2--2-2-3-0-2----|--5--7--7-5--7--8--|
D-|-2-----------2--|--2-2-2-2--2-2-2--2-2-3-0-2----|-------------------|

[ Tab from: http://www.guitartabs.cc/tabs/m/machine_head/none_but_my_own_tab_ver_3.html ]
D-|-----------------------|--------------------------------------|
A-|-----------------------|--------------------------------------|
F-|-----------------------|--------------------------------------|
C-|--7--9--9--7--9--10--9-|-7-5-6-7--5-6-7--5-6-7---8--8--8--8---|
G-|--5--7--7--5--7---8--7-|-5-3-4-5--3-4-5--3-4-5---6--6--6--6---|
D-|-----------------------|--------------------------------------|


D-|---------------------------------------|
A-|---------------------------------------|
F-|------------------------------7--9--10-|
C-|--7-5-6-7--5-6-7--5-6-7---8---5--7---8-|
G-|--5-3-4-5--3-4-5--3-4-5---6------------|
D-|---------------------------------------|


Please let me know if s.th. is wrong!!!
Or add up Solo`s. I hate to figuer out Solo`s,
because I can`t play them :-) .

Sam Razialruh

--
                   /-------------------------------\
                   |* REAL EYES REALIZE REAL LIES *|
                   |*       -- Robb Flynn --      *|
                   |* Sam Razialruh   Ulm/Germany *|
                   |* sami@razalruh.ul.artinet.de *|
                   |*   FidoNet:  2:2487/8035.15  *|
                   \ ------------------------------/
Comments