Machine Head - Message In A Bottle Chords & Tabs

 

Message In A Bottle Chords & Tabs

Machine Head Chords & Tabs

Version: 2 Type: Tab 0 ratings
1 star 2 stars 3 stars 4 stars 5 stars
comments

Message In A Bottle Tab

   
Message In A Bottle

Tuning : C,G,C,F,A,d

 Intro & verse 1: (With Chorus and Tremelo)
|----------------------------------------------|
|----------------------------------------------|
|----------------------------------------------|
|----------15--------11---------13--------8/9--| 
|------13---------9---------11---------6-------|
|--13----------9--------11----------6----------| 


 Pre-Chorus : (Mild Distortion)
|---------------------------------------|
|---------------------------------------|
|------------------9-9-9-9-11-11-11-11--| 2x
|--9-9-9-9-9-9-9-9-9-9-9-9-11-11-11-11--|
|--9-9-9-9-9-9-9-9-7-7-7-7-9--9--9--9---| 
|--9-9-9-9-9-9-9-9----------------------|
PM * * * * * * * * * * * * *  *  *  *

 Pre-Chorus Continued : (Distortion Slowly gets Heavier)
                        (Palm Mutes Slowly Start to fade off) 
|-----------------------------------|
|-----------------------------------|
|-----------------------------------| 4x
|--6-6-6-6-6-6-6-6-2-2-2-2-2-2-2-2--|
|--6-6-6-6-6-6-6-6-2-2-2-2-2-2-2-2--|
|--6-6-6-6-6-6-6-6-2-2-2-2-2-2-2-2--|
PM * * * * * * * * * * * * * * * *

[ Tab from: http://www.guitartabs.cc/tabs/m/machine_head/message_in_a_bottle_tab_ver_2.html ]
 Chorus: (Chorus and Tremelo)
|--6---5---6---5---6---5----4--|
|--6---5---6---5---6---5----4--|
|--8---6---8---6---8---6----4--|
|--8---7---8---7---8---7----6--|
|--6---7---6---7---6---7----6--|
|------7-------7-------7----6--|


 Verse 2: (heavy distortion)
|-----------------------------------|
|-----------------------------------|
|--8-8-8-8---------6-6-6-6----------|
|--8-8-8-8-9-9-9-9-6-6-6-6-6-6-6-6--|
|--6-6-6-6-9-9-9-9-4-4-4-4-6-6-6-6--|
|----------9-9-9-9---------6-6-6-6--| 


~Pre Chorus~

~Chorus~ 


 Bridge: (Full Distortion) 
 Long Pick Scrape then: 
|---------------------------------------|
|---------------------------------------|
|---------------------------------------|
|--------15------11--------13------8h9--| 
|-----13-------9--------11-------6------|
|--13--------9-------11--------6--------| 
PM *  *  *   * * *   *  *  *   * * * *


 Outro: (Heavy Distortion)
|-----------------------------------|
|-----------------------------------|
|--8-8-8-8---------6-6-6-6----------|
|--8-8-8-8-9-9-9-9-6-6-6-6-6-6-6-6--|
|--6-6-6-6-9-9-9-9-4-4-4-4-6-6-6-6--|
|----------9-9-9-9---------6-6-6-6--|



Qestions? Comments?........  sad_air_732@hotmail.com
Comments