Machine Head - From This Day Chords & Tabs

 

From This Day Chords & Tabs

Machine Head Chords & Tabs

Version: 3 Type: Tab 0 ratings
1 star 2 stars 3 stars 4 stars 5 stars
comments

From This Day Tab

machine head, from this day
ech, machine head24@aol.com
intro(this riff is great)
[ Tab from: http://www.guitartabs.cc/tabs/m/machine_head/from_this_day_tab_ver_3.html ]
e---------------------------------------------------
b---------------------------------------------------
g---10-9-----10--7-----10-9----9--8----10-9----9-7--
d-2------10--------8-2------10------2-------10-----8
a-2------------------2--------------2---------------
E-0------------------0--------------0---------------

e-----------------
b-----------------
g----10-9----9--15
d-2-------10------
a-2---------------
E-0---------------

Comments