Machine Head - From This Day Chords & Tabs

 

From This Day Chords & Tabs

Machine Head Chords & Tabs

Version: 2 Type: Tab 0 ratings
1 star 2 stars 3 stars 4 stars 5 stars
comments

From This Day Tab

Song: From This Day
Artist: Machine Head
Album: The Burning Red
Tabbed by: Ali Hafeez

Tuning: BEADF#b (low to high, same tuning i always use for Machine Head)

Key:
	^ - vibrato
	b - bend
       rb - release bend
   	x - muted

Intro

|-----------------------------------------------------------------------------------
|---------------------------------------------------------------------11b13rb11-----
|--9--10-9----9-7-------10-9----9-8^^-----10-9----9-7-------10-9----9---------------
|--9-------10-----8----------10----------------10-----8----------10-----------------
|--7--------------------------------------------------------------------------------
|--0-----------------0-----------------0-----------------0--------------------------

|------------------------------------
|------------------------------------
|------------------------------------
|--2-2---2-2-2---2-2-2---------------
|--2-2---2-2-2---2-2-2---2-8-8-8-8---
|--0-0---0-0-0---0-0-0---0-6-6-6-6---

Fill 

|--------------------
|--------------------
|--------------------
|--------------------
|----7-5-------------
|--0-----7-0-8-7-3---


Verse

|------------------
|------------------
|------------------
|--2-2---2-2-------
|--2-2---2-2-------
|--0-0---0-0-------

Verse (guitar 2 in background)

|----------------
|----------------
|----9----10-12--
|----------------
|----------------
|--0----0--------


Chorus
[ Tab from: http://www.guitartabs.cc/tabs/m/machine_head/from_this_day_tab_ver_2.html ]
|---------------------------------------------------------------------
|---------------------------------------------------------------------
|---------------------------------------------------------------------
|--2-2---2-2-2---2-2-2------------------------------------------------
|--2-2---2-2-2---2-2-2---2-8-8-8-8---5-5---5-5-5---5-5-5---5-8-8-8-8--
|--0-0---0-0-0---0-0-0---0-6-6-6-6---3-3---3-3-3---3-3-3---3-6-6-6-6--

|---------------------------------------------------------
|---------------------------------------------------------
|---------------------------------------------------------
|--5-5---5-5-5---5-5---5-5-4---7--7--8--8-----------------
|--3-3---3-3-3---3-3---3-3-2---5--5--6--6-----------------
|---------------------------------------------------------


Interlude

|--------------------------------------------
|--------------------------------------------
|--------------------------------------------
|--------------------------------------------
|--2--3--5---(6 times)---2--8--2--8--2--8----
|--0--1--3---------------0--6--0--6--0--6----


|--------------------------------------------
|--------------------------------------------
|--------------------------------------------
|--------------------------------------------
|--2--3--5---(6 times)---2--8--2--8--7--5----
|--0--1--3---------------0--6--0--6--5--3----


Ending


|--------------------------------------------
|--------------------------------------------
|--------------------------------------------
|--12--10--9---xxxxxxxx---10--7--9--------------------------
|--10--8---7---xxxxxxxx---8---5--7------------------------
|--------------------------------------------


Comments