Machine Head - Desire To Fire Chords & Tabs

 

Desire To Fire Chords & Tabs

Machine Head Chords & Tabs

Version: 1 Type: Tab 0 ratings
1 star 2 stars 3 stars 4 stars 5 stars
comments

Desire To Fire Tab

Song: Desire to fire
Artist: Machine Head
Album: The burning red

Tune to:BEADGb

------------------------------------------------------------------------------
------------------------------------------------------------------------------
-----------------------------------------------------------------x/-/-/-/-----
-----------------------------------------------------------------x/-/-/-/-----
-5-8-8-8-5-8-8-8-2------------------------------------------------------------
-3-6-6-6-3-6-6-6-0------------------------------------------------------------
  Intro                                                                       
[ Tab from: http://www.guitartabs.cc/tabs/m/machine_head/desire_to_fire_tab.html ]
---------------------------------------------------------7h8p7h8p7h8p7h8p7----
------------------------------------------------------------------------------
---------------------------------------------------------------x/-/-/-/-/-----
---------------------------------------------------------------x/-/-/-/-/-----
-5-8-8-8-5-8-8-8-2------------------------------------------------------------
-3-6-6-6-3-6-6-6-0------------------------------------------------------------
                                                                              
------------------------------------------------------------------------------
------------------------------------------------------------------------------
-----------------------------------------------------------x-/-/-/-/-/-/-/-/--
------------------------------------------------------------------------------
-5-8-8-8-5-8-8-8--------------------------------x\-\-\-\-\--------------------
-3-6-6-6-3-6-6-6-0-------------------x/-/-/-/-/-/---x\-\-\-\-x-/-/-/-/--------
                                                                              
------------------------------------------------------------------------------
------------------------------------------------------------------------------
------------------------------------------------------------------------------
-2----3----6----2----3----6---------------------------------------------------
-2----3----6----2----3----6---------------------------------------------------
-0----1----4----0--0-1----4---------------------------------------------------
                   .                                                          
------------------------------------------------------------------------------
------------------------------------------------------------------------------
------------------------------------------------------------------------------
-2----3----6------------------------------------------------------------------
-2----3----6---6/8-8-8-5/8-8-8------------------------------------------------
-0----1----4---4/6-6-6-3/6-6-6------------------------------------------------
                                                                              
------------------------------------------------------------------------------
------------------------------------------------------------------------------
-10---------------------------------------------------------------------------
--9---------------------------------------------------------------------------
--8---------------------------------------------------------------------------
----0--0---0-0-3p0--0-5p0--0-0------------------------------------------------
 Verse                                                                        
------------------------------------------------------------------------------
------------------------------------------------------------------------------
-10---------------------------------------------------------------------------
--9---------------------------------------------------------------------------
--8---------------------------------------------------------------------------
----0--0--0-0-3h5-5-5-5h6-6-6-------------------------------------------------
                                                                              
------------------------------------------------------------------------------
------------------------------------------------------------------------------
------------------------------------------------------------------------------
----------------------------------7-5-----------------------------------------
-5/7-7--7-7--7/8-8-8---5/7-7--7-7-----7-6-5-----------------------------------
-3/5-5--5-5--5/6-6-6---3/5-5--5-5-----------8---------------------------------
 Pre Chorus                                                                   
------------------------------------------------------------------------------
----------------------------------------------------------5-h-6---------------
------------------------------------------------------------------------------
-7----------------------------------------------------------------------------
-7----------------------------------------------------------------------------
-5----------------------------------------------------------------------------
 Change                                                                       
------------------------------------------------------------------------------
------------------------------------------------------------------------------
------------------------------------------------------------------------------
------------------------------------------------------------------------------
------------------------------------------------------------------------------
-2h3p2h3p2h3p2h3p2h3p2h3p2h3p2h3p2h3p2h3p2h3p2h3p2h3p2h3p2h3p2h3p2h3p2h3p2h3p-
 Interlude                                                                    
--------------6----------------6--6-------------------------------------------
------------------------------------------------------------------------------
------------------------------------------------------------------------------
-2--2--2--2--------2--2--2--2-------------------------------------------------
-2--2--2--2--------2--2--2--2-------------------------------------------------
-0--0--0--0--------0--0--0--0-------------------------------------------------
                                                                              
-------------6-----------------6--6-------------------------------------------
------------------------------------------------------------------------------
-4-------4--------4--------4--------------------------------------------------
-2-------2--------2--------2--------------------------------------------------
-2-------2--------2--------2--------------------------------------------------
-0-------0--------0--------0--------------------------------------------------
                                                                              
--7---------6---6------6---6------6---6-----6---6-----6---6-------------------
-10-----------9---9------9---9------9---9-----9---9-----9---9-----------------
------------------------------------------------------------------------------
------------------------------------------------------------------------------
------------------------------------------------------------------------------
------------------------------------------------------------------------------
Comments