Machine Head - Davidian Chords & Tabs

 

Davidian Chords & Tabs

Machine Head Chords & Tabs

Version: 2 Type: Tab 1 rating
1 star 2 stars 3 stars 4 stars 5 stars
comments

Davidian Tab

   
Machine Head - Davidian

Transcribed by:
 n07h1ng (n07h1ng@yahoo.com)

Tuning:
 This song is a bit different from other's because it isn't exactly tuned right.
 I only figured this out after reading an article where Rob Flynn explained this.
 The tuning is lower than a "dropped C" but higher than a "dropped B" tuning.
 I find the best way to get the correct tuning is use the first note of the song 
 to tune the low E string. Then using the low E string tune the other strings.

Notation:
 * = harmonics
 p.m. = palm mute


*This tab is not complete, but it should be more than enough to get you started.
 And, for the song pattern, just use the riffs and listen to the song to figure it out.



Riff A
-|----------------------|----------------------|
-|----------------------|----------------------|
-|---------*------------|-------*--------------|
-|--0------5-*---1------|--0-0--5-*--1----4-3--|
-|--0--------5---1------|--0-0----5--1----4-3--|
-|--0------------1------|--0-0-------1----4-3--|
 |p.m.|               p.m.|---|     



-|----------------------|----------------------|
-|----------------------|----------------------|
-|----------------------|----------------------|
-|--0--------------(0)--|--15\19----------(19)-|
-|--0--------------(0)--|--13\17----------(17)-|
-|--0--------------(0)--|----------------------|



Riff B
-|---------------------------------------------|
-|---------------------------------------------|
-|---------------------------------------------|
-|--0----0----1-0----0----0--------6--0--3--4--|
-|--0----0----1-0----0----0--------6--0--3--4--|
-|--0----0----1-0----0----0--0-0-0-6--0--3--4--|
         p.m.|-|            |p.m.-|



Riff B2
-|---------------------------------------------|
-|---------------------------------------------|
-|---------------------------------------------|
-|--0----0----1-0----0----0--------6-----------|
-|--0----0----1-0----0----0--------6-----------|
-|--0----0----1-0----0----0--0-0-0-6-----------|
         p.m.|-|            |p.m.-|



Riff B3
-|----------------------------------------------|
-|----------------------------------------------|
-|----------------------------------------------|
-|--0----0----1-0----0----0--------6--0--3--4-6-|
-|--0----0----1-0----0----0--------6--0--3--4-6-|
-|--0----0----1-0----0----0--0-0-0-6--0--3--4-6-|
         p.m.|-|            |p.m.-|



Riff C
-|---------------------------------------------|
-|----------------------------0-0-0------------|
-|---------------------------------------------|
-|--0---3--0--6--5--0--3---4---------0--1------|
-|--0---3--0--6--5--0--3---4---------0--1------|
-|--0---3--0--6--5--0--3---4---------0--1------|



Riff C2
-|---------------------------------------------|
-|---------------------------------------------|
-|---------------------------------------------|
-|--0---3--0--6--5--0--3---4-------------------|
-|--0---3--0--6--5--0--3---4-------------------|
-|--0---3--0--6--5--0--3---4-1-1-1-4-4-4-3-3-3-|
                            |-------p.m.------|



Riff C3
-|---------------------------------------------|
-|---------------------------------------------|
-|---------------------------------------------|
-|--0---3--0--6--5--0--3---4--x-x-x--0--1------|
-|--0---3--0--6--5--0--3---4--x-x-x--0--1------|
-|--0---3--0--6--5--0--3---4--x-x-x--0--1------|
             |-----p.m.-----|



Riff C4
-|---------------------------------------------|
-|---------------------------------------------|
-|---------------------------------------------|
-|--0---3--0--6--5--0--3-----------------------|
-|--0---3--0--6--5--0--3-----------------------|
-|--0---3--0--6--5--0--3-----------------------|



Riff D
-|------------------------------|
-|------------------------------|
-|------------------------------|
-|------------------------------|
-|------------------------------|
-|--0-0-0---0-0---0-0-0---0-0---|
  p.m.-------------------------|


[ Tab from: http://www.guitartabs.cc/tabs/m/machine_head/davidian_tab_ver_2.html ]
Riff D2
-|------------------------------|
-|------------------------------|
-|------------------------------|
-|------------------------------|
-|------------------------------|
-|--3-3-3--4-4-4--1-1-1--3-3-3--|
  p.m.-------------------------|



Riff D3
-|-------------------------------------|
-|-------------------------------------|
-|-------------------------------------|
-|-------------------------------------|
-|-------------------------------------|
-|--3-3-3--4-4-4--1-1-1--3-3-3--1-1-1--|
  p.m.--------------------------------|

|-----------------------|-----------------------------|
|-----------------------|-----------------------------|
|-----------------------|-----------------------------|PLAY 4 TIMES BEFORE SOLO
|-----------------------|-----------------------------|
|--0--------1--------0--|--(0)--0--0--0--6-----3--4---|
|--0----0---1--0--0--0--|--(0)--0--0--0--6--0--3--4---|


|--------------------------|-----------------------------|--7-(7)-8--7----------|    |--------------------------|-----------------------------|-----------------6^---|
|--------------------------|-----------------------------|----------------------|
|--------------------------|-----------------------------|----------------------|
|--------------------------|-----------------------------|----------------------|
|--------------------------|-----------------------------|----------------------|    


|--------------------------------------|-------------------------------------------|
|--------------------------------------|----------10--10-11-11-13--13---13^----11--|
|--7-(7)--8~---8/11--12--11------11-11-|--11--12-----------------------------------|
|--------------------------------------|-------------------------------------------|
|--------------------------------------|-------------------------------------------|
|--------------------------------------|-------------------------------------------|


|--------------------------------------|---------------------|--------------------------|
|--10~---------------------------------|---------------------|---------------------7----|
|---------12^-12-12--(12)-10-----------|--5~~----------------|-------5--7----7/8--------|
|---------------------------12--(12)\--|---------6-----------|--(6)---------------------|
|--------------------------------------|---------------------|--------------------------|
|--------------------------------------|---------------------|--------------------------|


|-----------------------------|-------------8--8/10--11--10------|---------10----10------|
|--7-8-7---7---8/10--7/8--10--|--11--8--10-------------------13--|--13-----13--------13--|
|--------8--------------------|----------------------------------|-----------------------|
|-----------------------------|----------------------------------|-----------------------|
|-----------------------------|----------------------------------|-----------------------|
|-----------------------------|----------------------------------|-----------------------|


|---------10----10-10--10--|--10--10---------10------10--|-10---10--10--10----10------|
|--13-----13-----------13--|--13--13--13---------13------|-13---13--13--13----13--13--|
|--------------------------|-----------------------------|----------------------------|
|--------------------------|-----------------------------|----------------------------|
|--------------------------|-----------------------------|----------------------------|
|--------------------------|-----------------------------|----------------------------|


|--10------10------10------10--|--13--13--13--13--13-|---16---16----16----16---16-----|
|--13--13--13--13--13--13--13--|--16--16--16--16--19-|---19---19----19----19---19-----|
|------------------------------|---------------------|--------------------------------|
|------------------------------|---------------------|--------------------------------|
|------------------------------|---------------------|--------------------------------|
|------------------------------|---------------------|--------------------------------|
Comments