Machine Head - Crashing Around You Chords & Tabs

 

Crashing Around You Chords & Tabs

Machine Head Chords & Tabs

Version: 1 Type: Tab 0 ratings
1 star 2 stars 3 stars 4 stars 5 stars
comments

Crashing Around You Tab

Artist: Machine Head
Album: Supercharger
Song: Crashing Around You
Tabbed by: Carl Stelcel (BlackSabbath44@aol.com)

[ Tab from: http://www.guitartabs.cc/tabs/m/machine_head/crashing_around_you_tab.html ]
I looked on tons of sites but I couldn’t find anyone that had this song. I tabbed out the verse and the chorus, I'll tab out the rest of the song soon.
Verse:
E -------------------------------------------------------------
B -------------------------------------------------------------
G -------------------------------------------------------------
D ---0-0------0-0----0-0-0-0---0-0-1-1-------------------------
A ---0-0------0-0----0-0-0-0---0-0-1-1-------------------------
E ----0-0-----0-0----0-0-0-0---0-0-1-1-------------------------

            
      
Chorus:
        E-----------------------------------
	B-----------------------------------
	G-11-9-7-12-11-9-11-9-7-7-6-4-------
	D-----------------------------------
	A--9-7-5-10--9-7--9-7-5-5-4-2-------
	E-----------------------------------
I don’t have the times that u hit each note, but it’s not hard to figure out.



Till Next time!

Comments