Machine Head - Burning Red Chords & Tabs

 

Burning Red Chords & Tabs

Machine Head Chords & Tabs

Version: 10 Type: Tab 0 ratings
1 star 2 stars 3 stars 4 stars 5 stars
comments

Burning Red Tab

   
Artist: Machine Head
Song: The Burning Red
Album: The Burning Red

Tuning: standard e b G D A e

I've put some instructions of how to play it e.g when to use a pick, as some of the
song is finger picked. Enjoy!

/ = slide up


Intro & Verse (Finger picked)

e|-------3----------3----------0----------0-|---|
b|----0----------0--------------------------|-3-|
G|--------------------------0----------0----|---|
D|-2----------0-----------------------------|---| 
A|-----------------------3----------2-------|---|
E|------------------------------------------|---|

First bar played 2 times, with the second bar played the second time only

e|-------3----------3----------0----------0-|---|
b|----0----------0--------------------------|-3-|
G|--------------------------0----------0----|---|
D|-2----------0-----------------------------|---| 
A|-----------------------3----------2-------|---| X 4
E|------------------------------------------|---|

Pre - Chorus (Pick)

e|---------------------------------------------------------|
b|---------------------------------------------------------|
G|---------------------------------------------------------|
D|-6-6-666-6-6-6-4-4-444-4-4-4-2-2-222-2-2-2---------------|
A|-4-4-444-4-4-4-2-2-222-2-2-2-0-0-000-0-0-0-6-6-666-6-6-6-|
E|-------------------------------------------4-4-444-4-4-4-|

Verse (Finger Pick)
[ Tab from: http://www.guitartabs.cc/tabs/m/machine_head/burning_red_tab_ver_10.html ]
e|-------3----------3----------0----------0-|---|
b|----0----------0--------------------------|-3-|
G|--------------------------0----------0----|---|
D|-2----------0-----------------------------|---| 
A|-----------------------3----------2-------|---| X 6
E|------------------------------------------|---|

Pre - Chorus (Pick)

e|---------------------------------------------------------|
b|---------------------------------------------------------|
G|---------------------------------------------------------|
D|-6-6-666-6-6-6-4-4-444-4-4-4-2-2-222-2-2-2---------------|
A|-4-4-444-4-4-4-2-2-222-2-2-2-0-0-000-0-0-0-6-6-666-6-6-6-|
E|-------------------------------------------4-4-444-4-4-4-|

Chorus (Pick)

e|-------------------------------------------------------------------|
b|-------------------------------------------------------------------|
G|-------------------------------------------------------------------|
D|-4-4-4-4-4-4-4-4-6-6-6-6-6-6-6-6-7-7-7-7-7-7-7-7-9-9-9-9-9-9-9-9-9-|
A|-4-4-4-4-4-4-4-4-6-6-6-6-6-6-6-6-7-7-7-7-7-7-7-7-9-9-9-9-9-9-9-9-9-|
e|-2-2-2-2-2-2-2-2-4-4-4-4-4-4-4-4-5-5-5-5-5-5-5-5-7-7-7-7-7-7-7-7-7-|

Lead Part played till the end of the song (Pick)

e|-----------19-17----17-------------------|
b|--------17-------21----19-17-21----------|
G|-18--20-------------------------20-16/18-|
D|-----------------------------------------|
A|-----------------------------------------|
E|-----------------------------------------|

Played underneath the lead (Pick)

e|---------------------------------------------------------|
b|---------------------------------------------------------|
G|---------------------------------------------------------|
D|-6-6-666-6-6-6-4-4-444-4-4-4-2-2-222-2-2-2---------------|
A|-4-4-444-4-4-4-2-2-222-2-2-2-0-0-000-0-0-0-6-6-666-6-6-6-|
E|-------------------------------------------4-4-444-4-4-4-|

Comments