M M - Lonely Day Chords & Tabs

 

Lonely Day Chords & Tabs

M M Chords & Tabs

Version: 1 Type: Tab 0 ratings
1 star 2 stars 3 stars 4 stars 5 stars
comments

Lonely Day Tab

 LONELY DAY   
 By M & M
_ _ _ _ _ _ _ _ _ _ _ _ _ _ _ _ _ _ _ _ _ _ _ _ _ _ _ _ _ _ _ _ _ _ _ _ _ _ _ _ _ _ _ _ _ _ _ _ _ 
E-----------------------------------------------------------------------------------------------------------------------
B-----------------------------------------------------------------------------------------------------------------------
G-----------------------------------------------------------------------------------------------------------------------
D-----------------------------------------------------------------------------------------------------------------------
A-----------------------------------------------------------------------------------------------------------------------
E----5~6---6----6~8---8----8~10---10--10--10--10--10--10-----5~6---6---6~8---8----8~10---------------
 
      (repeat twice)
  ^^^^^^^^^^^^^^^^^^^^^^^^^^^^^^^^^^^^^^^^^^^^^^^^^^^^^^^^^^^^^^^^^^^^^^^^^^^^^^^^^
E-------------------------------------------------------------------------------------------------------------------------
B-------------------------------------------------------------------------------------------------------------------------
G-------------------------------------------------------------------------------------------------------------------------
D---5~6---6----6~8---8----8~10---10--10--10--10--10--10-----5~6---6---6~8---8----8~10-----------------
A---5~6---6----6~8---8----8~10---10--10--10--10--10--10-----5~6---6---6~8---8----8~10-----------------
E---5~6---6----6~8---8----8~10---10--10--10--10--10--10-----5~6---6---6~8---8----8~10------------------

       (bar chords)


~= Slide
 ^= Distortion  
_ _= flanger or regular

 ORDER
(1)x 2
(2)x2
(1)x1
[ Tab from: http://www.guitartabs.cc/tabs/m/m_m/lonely_day_tab.html ]
Comments