M I R V - On The Prowl Chords & Tabs

 

On The Prowl Chords & Tabs

M I R V Chords & Tabs

Version: 1 Type: Tab 0 ratings
1 star 2 stars 3 stars 4 stars 5 stars
comments

On The Prowl Tab

#----------------------------------PLEASE NOTE---------------------------------#
#This file is the author's own work and represents their interpretation of the #
#song. You may only use this file for private study, scholarship, or research. #
#------------------------------------------------------------------------------##
From: lars@ecst.csuchico.edu (Dammit Jim!!)
Subject: TAB: On The Prowl  M.I.R.V.

  I tabbed this out in long form hoping that it would be easier to follow and
  I hope that it is.  It's pretty straight forward, listend to the album
  to get the rhythm.  In some places near the end it sounds like there are
  two guitars playing the 2nd guitar part, I just tabbed it as thought there
  was only one.  Send comments or suggestions to lars@ecst.csuchico.edu

  On the Prowl
  By M.I.R.V. from the album Cosmodrome

  tabbed by Eric Nelson
  
 
  
 
  Guitar 1  clean w/ reverb

e:-2--0--2-----------------------------6--5---3---5--------------------------|
B:-2--0--2------------5h7h5------------6--5---3---5--------------------------|
G:-2--0--2---6--7--9---------7/12--12--7--6---4---6---6--7--7--9---4--5--7--4|
D:-2--0--2-----------------------------8--7---5---7--------------------------|
A:-------------------------------------8--7---5---7--------------------------|
E:-------------------------------------6--5---3---5--------------------------|
  
  Guitar 2  w/ Distortion
e:---------------------------------------------------------------------------|
B:---------------------------------------------------------------------------|
G:---------------------------------------17h18h17-15--17---------------------|
D:---------------------------------------------------------------------------|
A:---------------------------------------------------------slight-feedback---|
E:---------------------------------------------------------------------------|




e:-------5---3---5-------------------------------6--5---3---5----------------|
B:-------5---3---5-------------5h6h6-------------6--5---3---5----------------|
G:-------6---4---6----6--7--9---------7/12--12---7--6---4---6----------------|
D:----5--7---5---7-------------------------------8--7---5---7----------------|
A:----5--7---5---7-------------------------------8--7---5---7----------------|
E:----3--5---3---5-------------------------------6--5---3---5----------------|

e:---------------------------------------------------------------------------|
B:---------------------------------------------------------------------------|
G:----17/22~---------------------------------------17h18h17-15-17------------|
D:---------------------------------------------------------------------------|
A:--------------------------------------------------------------let-feedback-|
E:---------------------------------------------------------------------------|




e:-------------------------------------------------------------------------2-|
B:-------------------------------------------------------------------------2-|
G:-------------------------------------------------------------------------2-|
D:-------------------------------------------------------------------------2-|
A:-------0--0----------2------------------2--0-----0---------2---------2---0-|
E:-------------3----3------------------3--------3---------3------------------|
                   pm  pm             pm  pm   pm         pm
e:---------------------------------------------------------------------------|
B:------------------------------------------------------------------17h18p17-|
G:------22-slight-bend-------------------------------------------------------|
D:---------------------------------------------------------------------------|
A:---------------------------------------------------------------------------|
E:---------------------------------------------------------------------------|




e:-----------------------------------2--------------------5~----5--5---------|
B:-----------------------------------2--------------------5~-------5-----8---|
G:-----------------------------------2--------------------6~----------6------|
D:-----------------------------------2---------------------------------------|
A:-----0--2-----2--4-----4--2-----2--0---------------------------------------|
E:--3--------3--------5--------3---------------------------------------------|

e:---------------------------------------------------------------------------|
B:-15-17-----------------------------22b-------------------------------------|
G:---------------------------------------------------------------------------|
D:---------------------------------------------------------------------------|
A:---------------------------------------------------------------------------|
E:---------------------------------------------------------------------------|




e:--------2-----------------------------------2--------------5----5--5-------|
B:--------2-----------------------------------2--------------5----------5---8|
G:--------2-----------------------------------2--------------6------------6--|
D:--------2-----------------------------------2------------------------------|
A:--------0-----0--2-----2--4-----4--2-----2--0------------------------------|
E:-----------3--------3--------5--------3------------------------------------|

e:---------------------------------------------------------------------------|
B:-------------------------------------------------------17h18p17-15-17---/22|
G:---------------------------------------------------------------------------|
D:---------------------------------------------------------------------------|
A:---------------------------------------------------------------------------|
E:---------------------------------------------------------------------------|




e:---------------------------------------------------------------------------|
B:-------7--------7--------7-------5--------5--8--/7--------7---------7-----5|
G:-------8-----8--------8----------------6---------------8---------8---------|
D:-------9--9--------9--------9-------7---------------9---------9--------9---|
A:---------------------------------------------------------------------------|
E:---------------------------------------------------------------------------|

e:---------------------------------------------------------14-15-17-19-17-15-|
B:------------14-15-17-------------------------------------------------------|
G:---------------------------------------------------------------------------|
D:---------------------------------------------------------------------------|
A:---------------------------------------------------------------------------|
E:---------------------------------------------------------------------------|




e:---------------------------------------------------------------------------|
B:--------5--8--7--------7--------7-----5--------5--5--8--7--------7--------7|
G:-----6--------------8--------8--------------6-----------------8--------8---|
D:--7--------------9--------9--------9-----7-----------------9--------9------|
A:---------------------------------------------------------------------------|
E:---------------------------------------------------------------------------|

e:17-17-15-15-14----------14-15-17-----------------------------14-15-17-19-17|
B:---------------------------------------------------------------------------|
G:---------------------------------------------------------------------------|
D:---------------------------------------------------------------------------|
A:---------------------------------------------------------------------------|
E:---------------------------------------------------------------------------|




e:------------------2--------------5-----5--5------------2-------------------|
B:-----5--------5---2--------------5--------5-----8------2-------------------|
G:-----------6------2--------------6-----------6---------2-------------------|
D:--9-----7---------2------------------------------------2-------------------|
A:-------------------------------------------------------0-----0--2-----2--4-|
E:----------------------------------------------------------3--------3-------|

e:-15-17-----15--------------------------------------------------------------|
B:-------------------------------17h18p17-15-17------------------------------|
G:---------------------------------------------------------------------------|
D:---------------------------------------------------------------------------|
A:---------------------------------------------------------------------------|
E:---------------------------------------------------------------------------|




e:----------------2------------5------5--5----------2------------------------|
B:----------------2------------5---------5-----8----2------------------------|
G:----------------2------------6------------6-------2------------------------|
D:----------------2---------------------------------2------------------------|
A:----4--2-----2------------------------------------0-----0--2-----2--4-----4|
E:-5--------3------------------------------------------3--------3--------5---|

e:---------------------------------------------------------------------------|
B:--------------------------17h18p17-15-17---22------------------------------|
G:---------------------------------------------------------------------------|
D:---------------------------------------------------------------------------|
A:---------------------------------------------------------------------------|
E:---------------------------------------------------------------------------|




e:-----------2----------5---------5--5---------------------------------------|
B:-----------2----------5------------5-----8-----7--------7--------7-----5---|
G:-----------2----------6---------------6--------------8--------8------------|
D:-----------2--------------------------------------9--------9--------9-----7|
A:--2-----2------------------------------------------------------------------|
E:-----3---------------------------------------------------------------------|

e:-------------------------------------------------14-15-17~-----------------|
B:-------------------17h18p17-15-17---22-------------------------------------|
G:---------------------------------------------------------------------------|
D:---------------------------------------------------------------------------|
A:---------------------------------------------------------------------------|
E:---------------------------------------------------------------------------|




e:---------------------------------------------------------------------------|
B:-----5--5--8--7--------7--------7-----5--------5--8--7--------7--------7---|
G:--6-----------------8--------8--------------6--------------8--------8------|
D:-----------------9--------9--------9-----7--------------9--------9--------9|
A:---------------------------------------------------------------------------|
E:---------------------------------------------------------------------------|

e:-----------------14-15-17-19-17-15-17-17-15-15-14--------14-15-17----------|
B:---------------------------------------------------------------------------|
G:---------------------------------------------------------------------------|
D:---------------------------------------------------------------------------|
A:---------------------------------------------------------------------------|
E:---------------------------------------------------------------------------|



[ Tab from: http://www.guitartabs.cc/tabs/m/m_i_r_v/on_the_prowl_tab.html ]
e:----------------------------------------------------2---------------5------|
B:--5--------5--8--7-------7--------7-----5--------5--2---------------5------|
G:--------6--------------8-------8--------------6-----2---------------6------|
D:-----7--------------9-------9--------9-----7--------2----------------------|
A:---------------------------------------------------------------------------|
E:---------------------------------------------------------------------------|

e:----------------------14-15-17-19-17-15-17-17-15-15-14---------------------|
B:---------------------------------------------------------------17h18p17-15-|
G:---------------------------------------------------------------------------|
D:---------------------------------------------------------------------------|
A:---------------------------------------------------------------------------|
E:---------------------------------------------------------------------------|




e:5--------------------------------------------------------------------------|
B:---5-----8-------9---------9---------9-------7--------7--7--10--/9--------9|
G:------6----------------10--------11----------------8-------------------10--|
D:--------------------11--------10--------11------9-------------------11-----|
A:---------------------------------------------------------------------------|
E:---------------------------------------------------------------------------|

e:------------------16-17-19~----------------------------------------16-17-19|
B:17------22-----------------------------------------------------------------|
G:---------------------------------------------------------------------------|
D:---------------------------------------------------------------------------|
A:---------------------------------------------------------------------------|
E:---------------------------------------------------------------------------|




e:---------------------------------------------------------------------------|
B:--------9------7--------7--10--/9--------9--------9------7-------7--10--9--|
G:-----10--------------8----------------10-------10--------------8-----------|
D:--11-------11-----9----------------11-------11-------11-----9--------------|
A:---------------------------------------------------------------------------|
E:---------------------------------------------------------------------------|

e:-21-19-17-19-19-17-17-16---------16-17-19~-------16-17-19-21-19-17-19-19-17|
B:---------------------------------------------------------------------------|
G:---------------------------------------------------------------------------|
D:---------------------------------------------------------------------------|
A:---------------------------------------------------------------------------|
E:---------------------------------------------------------------------------|




e:---------------------------------------------------------------------------|
B:------9--------9-------10-------10---10-/-12-\-10---9--------9--------9----|
G:---10-------10---------------11------11-/-13-\-11---------10-------10------|
D:11-------11-------11------12---------12-/-14-\-12------11-------11-------11|
A:---------------------------------------------------------------------------|
E:---------------------------------------------------------------------------|

e:-17-16-/21-----------------------------------------------------------------|
B:---------------------------------------------------------------------------|
G:---------------------------------------------------------------------------|
D:---------------------------------------------------------------------------|
A:---------------------------------------------------------------------------|
E:---------------------------------------------------------------------------|




e:---------------------------------------------------------------------------|
B:--7--------7--------7------9--------9--------9------10-------10---10---10-/|
G:--------8--------8---------------10-------10--------------11-----------11-/|
D:-----9--------9--------9------11-------11-------11-----12--------------12-/|
A:---------------------------------------------------------------------------|
E:---------------------------------------------------------------------------|

e:-21h22p21--19-21---------------22------------------------------------------|
B:---------------------------------------------------------------------------|
G:---------------------------------------------------------------------------|
D:---------------------------------------------------------------------------|
A:---------------------------------------------------------------------------|
E:---------------------------------------------------------------------------|




e:---------------------------------------------------------------------------|
B:-12-\-10---9--------9--------9-----7--------7--------7----9---9------------|
G:-13-\-11---------10-------10-------------8--------8-------10--10-----------|
D:-14-\-12------11-------11-------11----9--------9----------11--11-----------|
A:---------------------------------------------------------------------------|
E:---------------------------------------------------------------------------|

e:-----------22b---22b-------21-----------------------------22b-22b-21-------|
B:---------------------------------------------------------------------------|
G:---------------------------------------------------------------------------|
D:---------------------------------------------------------------------------|
A:---------------------------------------------------------------------------|
E:---------------------------------------------------------------------------




e:------------------------------------------------------------------------2--|
B:7-/\/\/--------9--9---7-------------------------------------------------2--|
G:8-/\/\/--------10-10--8-------------------------------------------------2--|
D:9-/\/\/--------11-11--9-------------------------------------------------2--|
A:-----------------------------------12\\\\\\\\\\\\\\\\\\\\\\\\\\\-----------|
E:-w/-whammy-bar------------------------stacatto-slide--ala-Dick-Dale--------|

e:---------------22b-22b-21--------------------------------------------------|
B:---------------------------------------------------------------------------|
G:---------------------------------------------------------------------------|
D:---------------------------------------------------------------------------|
A:---------------------------------------------------------------------------|
E:---------------------------------------------------------------------------|




e:-------------------------------------------2-------------------------------|
B:-------------------------------------------2-------------------------------|
G:-------------------------------------------2-------------------------------|
D:-------------------------------------------2-------------------------------|
A:-------------------------------------------0-----0--2-----2--4-----4--2----|
E:----------------------------------------------3--------3--------5--------3-|

e:---------------------------------------------------------------------------|
B:-----17h18p17-------------------17h18p17-15-17-----------------------------|
G:---------------------------------------------------------------------------|
D:---------------------------------------------------------------------------|
A:---------------------------------------------------------------------------|
E:---------------------------------------------------------------------------|




e:----2-----------5-----5--5-------------2-----------------------------------|
B:----2-----------5----------5-----8-----2-----------------------------------|
G:----2-----------6-------------6--------2-----------------------------------|
D:----2----------------------------------2-----------------------------------|
A:-2-------------------------------------0-----0--2-----2--4-----4--2-----2--|
E:------------------------------------------3--------3--------5--------3-----|

e:---------------------------------------------------------------------------|
B:----22---------------------------------------------------------------------|
G:---------------------------------------------------------------------------|
D:---------------------------------------------------------------------------|
A:---------------------------------------------------------------------------|
E:---------------------------------------------------------------------------|




e:2----------5--------2------------------------------------2-----------------|
B:2----------5--------2------------------------------------2-----------------|
G:2----------6--------2------------------------------------2-----------------|
D:2-------------------2------------------------------------2-----------------|
A:--------------------0-----0--2-----2--4-----4--2-----2---------------------|
E:-----------------------3--------3--------5--------3------------------------|

e:---------------------------------------------------------------------------|
B:----17h18p17-15-17-22--14-15-17------------14-15-17-19-17-15-17-17-15-15-14|
G:---------------------------------------------------------------------------|
D:---------------------------------------------------------------------------|
A:---------------------------------------------------------------------------|
E:---------------------------------------------------------------------------|




e:---------5------------------------5-----------------------------------5----|
B:---------5------------------------5-----------------------------------5----|
G:---------6------------------------6-----------------------------------6----|
D:---------------------------------------------------------------------------|
A:---------------------------------------------------------------------------|
E:---------------------------------------------------------------------------|

e:---------------------------------------------------------------------------|
B:-----------14-15-17----------14-15-17-19-17-15-17-17-15-15-14------14-15-17|
G:---------------------------------------------------------------------------|
D:---------------------------------------------------------------------------|
A:---------------------------------------------------------------------------|
E:---------------------------------------------------------------------------|




e:-------------------------5----------------------------------------------5--|
B:-------------------------5----------------------------------------------5--|
G:-------------------------6----------------------------------------------6--|
D:---------------------------------------------------------------------------|
A:---------------------------------------------------------------------------|
E:---------------------------------------------------------------------------|

e:------------------------------------------------------------------------22b|
B:-19-17-15-17-17-15-15-14---------------------------------------------------|
G:------------------------------14-15-17-19-17-15-14-14-18-18-16-------------|
D:---------------------------------------------------------------------------|
A:---------------------------------------------------------------------------|
E:---------------------------------------------------------------------------|




e:---------------------------------------------5-----------------|
B:---------------------------------------------5-----------------|
G:---------------------------------------------6-----------------|
D:---------------------------------------------------------------|
A:---------------------------------------------------------------|
E:---------------------------------------------------------------|

e:--22b----21b--21b----22b--22b----21b--21b---18/21~--21/22--22~-|
B:---------------------------------------------------------------|
G:---------------------------------------------------------------|
D:---------------------------------------------------------------|
A:---------------------------------------------------------------|
E:---------------------------------------------------------------|



Comments