M2m - Eventually Chords & Tabs

 

Eventually Chords & Tabs

M2m Chords & Tabs

Version: 2 Type: Tab 0 ratings
1 star 2 stars 3 stars 4 stars 5 stars
comments

Eventually Tab

   
Title: Eventually
Artist: M2M
Album: The Big Room
Tabbed by: E.J. Gemzon =====> clapton_riff@yahoo.com
    
This song is very nice to play.M2M fanatics should be
interested with this.
note: capo on 4th fret


  INTRO  &  VERSES :

 Am            G               D
e-------------|-------3-----|-------3p2----------|
b-------1-----|-------0-----|------------------3-|
g-------2-----|---------0---|----2---------------|
d----2--------|-------------|--0-----------------|
a--0-------0--|---2---------|--------------------|
E-------------|-3-----------|--------------------|

 
  Am            CM7           Em          G
e--------------|------------|------------|------3-----|
b-------1------|------0-----|-------0----|------0-----|
g-------2------|------0-----|-------0----|---------0--|
d----2---------|---2--------|------------|------------|
a--0-------2---|-3--------3-|----2-------|---2--------|
E--------------|------------|--0-------0-|-3----------|


  D
e---------3p2--------|
b-------3-----3------|
g-----2--------------|
d--0-----------------|
a--------------------|
E--------------------|



  CHORUS :


  Am           G            D       
e-------------|------------|------3p2-----|
b-------1-----|-------0----|----3-----3---|
g-------2-----|-------0----|--2-----------|
d----2--------|------------|0-------------|
a--0-------0--|--2-------2-|--------------|
E-------------|3-----------|--------------|
   Aahhh.......             
 
[ Tab from: http://www.guitartabs.cc/tabs/m/m2m/eventually_tab_ver_2.html ]
 Am           C           G
e------------|-----------|------3-----|
b------1-----|------1----|------0-----|
g------2-----|------0----|----------0-|
d----2-------|---2-------|------------|
a--0------2--|-3------3--|--2---------|
E------------|-----------|3-----------|

 


  D            Am         C
e-------3p2---|----------|----------|
b-----3-----3-|-----1----|-----1----|
g---2---------|-----2----|-----0----|
d-0-----------|---2------|---2------|
a-------------|-0------2-|-3------3-|
E-------------|----------|----------|
  


  Em           G           D
e-------------|-------3---|-------3p2---|
b-------0-----|-------0---|-----3-----3-|
g-------0-----|---------0-|---2---------|
d-------------|-----------|-0-----------|
a---2---------|---2-------|-------------|
E-0---------0-|-3---------|-------------|
 

 G           G/F#    Em7
e-----------|------------|
b------0----|------0-----|
g------0----|------0--0--|
d---0-------|---------0--|
a--------2--|---2-----2--|
E-3---------|-2----------|
        Ev..e..n..tually

  Outro :

 
  Am7    Asus/B     Am7   Asus/B
e----0--|----0----|----0-|-----0--|
b-1-----|-3-------|-1----|-3------|
g-------|------0--|------|--------|
d-------|---------|------|--------|
a-0-----|-2-------|-0----|-2------|
E-------|---------|------|--------|


=====> This one is absolutely correct.(The chords were
       from Marit.)My other tab of this song is just
       close but this is the right one.(and a hell lot 
       easier to understand). I appreciate if U request 
       M2M song just e-mail me. 
Comments