Lynyrd Skynyrd - Workin For Mca Chords & Tabs

 

Workin For Mca Chords & Tabs

Lynyrd Skynyrd Chords & Tabs

Version: 2 Type: Bass Tab 0 ratings
1 star 2 stars 3 stars 4 stars 5 stars
comments

Workin For Mca Bass Tab

Workin' For MCA - Lynyrd Skynyrd

  intro
G|----------------------------|
D|----------------------------|
A|----------------------------|
E|2/7-\--2/7-\--2/7-\--2/7-\--|
[ Tab from: http://www.guitartabs.cc/tabs/l/lynyrd_skynyrd/workin_for_mca_btab_ver_2.html ]
  verse riff
G|------------------------------|
D|------------------------------|
A|2-542-0-0-2---02-542-0-25---0|
E|-----2-----2-2-------2----2-2-|

  chorus
G|---------------------2------------------------------|
D|-4-2------------4-2----24---4-2------------4-2------|
A|--4---0----------4--4--------4---0----------4---0---|
E|2----2--2-2222-2-----------2----2--2-2222-2----2----|

tabbed by Achilles (blue_sincere@hotmail.com)
Comments