Lynyrd Skynyrd - Whisky Rock A Roller Chords & Tabs

 

Whisky Rock A Roller Chords & Tabs

Lynyrd Skynyrd Chords & Tabs

Version: 1 Type: Bass Tab 0 ratings
1 star 2 stars 3 stars 4 stars 5 stars
comments

Whisky Rock A Roller Bass Tab

Whiskey Rock-A-Roller - Lynyrd Skynyrd

  Intro
G|---------------------------------------------------------------------------------------
D|---------------------------4-5-7---------------------------------4-5-7-10-8--------5---
A|-5-5-R-3-3-R---0-2-3-5-5-7-------3-3---------0-2-3-5-5-------5-7------------10-5-7-----
E|-------------3-----------------------0-1-2-3-----------7-5-7-------------------------3-

 ----------------|
 ----------------| 
 0-2-3-5-5-------| 
 ----------7-5-7-|

  Verse (x4)
G|---------------------------------------|
D|---------------------------------------|
A|-5-5-------3-3---------0-2-3-5-5-------|
E|-----2-3-4-----0-1-2-3-----------7-5-7-|

  Chorus
G|---------------------------------------------------------------|
D|---------------------------------------------------------------|
A|---0-2-3-5-5---------0-2-3-5-5---------0-2-3-5-5-------------5-|
E|-3-----------7-5-7-3-----------7-5-7-3-----------7-5-7-1-1-3---|


  Chorus outro
G|---------------------------------------|
D|-----4-5-7-----------------------------|
A|-5-7-------3-3---------0-2-3-5-5-------|
E|---------------0-1-2-3-----------7-5-7-|

PLAY VERSE 4 TIMES HERE

PLAY CHORUS HERE (leave off the outro)
[ Tab from: http://www.guitartabs.cc/tabs/l/lynyrd_skynyrd/whisky_rock_a_roller_btab.html ]
G|------------------------------------------------------|
D|------------------------------------------------------|
A|-----5---3---5-5-5-5---------5-5-5-5-3-3-3-3-3-3-3-3-3|
E|-3-------------------3-3-3-3--------------------------|

  (x4)
G|-------0-2-------------------------------|
D|-0-2-4-----0-2-------------2-0-0---------|
A|---------------3-3---0-2-3-------0-2-3-4-|
E|-------------------3---------------------|

  Solo
G|---------------------------------------------------------------------------------------
D|---------------------------------------------------------------------------------------
A|---0-2-3-5-5---------0-2-3-5-5---------0-2-3-5-5-------------5----3------------5-5-5-5-
E|-3-----------7-5-7-3-----------7-5-7-3-----------7-5-7-1-1-3----------3----1-----------

 ------------------|
 ------------------|
 5-5-5-5-5-5-5-5-R-|
 ------------------|

PLAY VERSE HERE 4 TIMES

PLAY CHORUS HERE (leave off the outro)

G|------------------------------------------------------|
D|------------------------------------------------------|
A|-----5---3---5-5-5-5---------5-5-5-5-3-3-3-3-3-3-3-3-3|
E|-3-------------------3-3-3-3--------------------------|

G|-------0-2---------------------|
D|-0-2-4-----2-0-------------2-0-|
A|---------------3-3---0-2-3-----|
E|-------------------3-----------|

Tabbed by Frankman


Comments