Lynyrd Skynyrd - What's Your Name Chords & Tabs

 

What's Your Name Chords & Tabs

Lynyrd Skynyrd Chords & Tabs

Version: 1 Type: Tab 2 ratings
1 star 2 stars 3 stars 4 stars 5 stars
comments

What's Your Name Tab

since u all complained about me not having the song title here
                            What's Your Name (Little Girl)
                            by Lynyrd Skynyrd

and here's a link for the music  http://a423.v13336d.c13336.g.vm.akamaistream.net/7/423/13336/3b858b51/mtvrdstr.download.akamai.com/8512/wmp/2/2345/20954_2_1_05.asf


"chords" i found work well in this song, 
incase ur preforming this song, and u loose your place,
hang back on these
 "c"+5 frets (up a strign but u cant go past top e lol)
E|--5--
B|--6--
G|--5--
D|--7--
A|--8--
 and "a" +5 frets^^
E|--5--
B|--7--
G|--7--
D|--7--
A|--5--


opening: (3 guitars)

E---------------------------------------------------------
B---------------------------------------------------------
G---------------------------------------------------------
D-4-5-6-7---7-9-7---10-9-7--------------------------------
A-2-3-4-5---5-5-5---8--7-5--------5---5-7-5--5--5-7-5-----
E---------------------------0-2-3-3---3-3-3--3--3-3-3-----

 verse
|--------------------|------------------------|----------------------|
|--------------------|------------------------|----------------------|
|-----------------12\|-----2--5\4--2--------2-|--2-----------------2-|
|-----------------12\|-----2--5\4--2------4-2-|--2--4-----2--4-----2-|
|--5--7-----5--7--10\|----------------3---4-0-|--------0--0--0-----0-|
|--3--3--3--3--3-----|------------------------|----------------------|
                          


|----------------------|----------------------|----------------------|
|----------------------|----------------------|----------------------|
|--2-------------------|----------------------|---2--------2-------2-|
|--2--4-----2--4-----5-|---5----------------2-|------4--2----------2-|
|--------0--0--0-----5-|---5--7----5--7---3h4-|---------------3--4---|
|----------------------|--------3--3--3-------|----------------------|
                                                             

                                              (Fill 2)
|----------------------|----------------------|----------------------|
|----------------------|----------------------|----------------------|
|--2-----------------2-|--2-------------------|----------------------|
|--2--4-----2--4-----2-|--2--4-----2--4-----2-|--2-------------------|
|--------0--0--0-------|--------0--0--0-----2-|-----4-----2--4-----2-|
|----------------------|--------------------0-|--------0--0--------0-|



|----------------------|----------------------|----------------------|
|----------------------|----------------------|----------------------|
|--------------------2-|--2-----------------2-|--2-------------------|
|--------------------2-|--2--4-----2--4-----2-|--2--4-----2--4-----5-|
|--2--4-----2--4-----0-|--------0--0--0-----0-|--------0--0--0-----5-|
|--------0--0----------|----------------------|----------------------|
            


|----------------------|----------------------|----------------------|
|----------------------|----------------------|----------------------|
|--------------------7-|----7---------------2-|--2---------2---------|
|--5-----------------7-|----7--5------------2-|--2---4-----2---4---2-|
|--5--7-----5--7-----5-|----5--5--------------|---------0--0-------2-|
|--------3--3--3-------|-------3--------------|--------------------0-|


                       (Fill 3 1st time/8 3rd time)
|----------------------|----------------------|----------------------|
|----------------------|----------------------|----------------------|
|--------------------2-|---2-----2-------2----|--2------2----------7-|
|--2-----------------2-|---2--4--2---4---2----|--2-4--2-2----5--6--7-|
|--2---4----2--4-----0-|---------0-------0----|--------------3--4--5-|
|-----------0--0-------|----------------------|----------------------|
chorus                                         (Fill 5)
|----------------------|----------------------|----------------------|
|----------------------|----------------------|----------------------|
|--7----------10\9--7--|----7---7-------------|------------------3/4-|
|--7--9--7----10\9--7--|----7---7-------------|---5--------5--5------|
|--5--5--5-----8\7--5--|------9---------4--5--|------7-----5--5------|
|----------------------|-------------0--2--3--|---------4------------|

[ Tab from: http://www.guitartabs.cc/tabs/l/lynyrd_skynyrd/whats_your_name_tab.html ]
                       (Fill 4)
|-3--3-----3--3--------|----------------------|----------------------|
|-3--3--5--3--3--------|----------------------|----------------------|
|--------------------7-|--7-----------10\9--7-|----7-----------------|
|----------------5-6-7-|--7--9--7-----10\9--7-|----7------7----------|
|----------------3-4-5-|--5--5--5------8\7--5-|--------9--5-----4--5-|
|----------------------|----------------------|--------------0--2--3-|
              
First Time                                      Second Time

|---------------------------------------|-------------------------------------|
|---------------------------------------|-------------------------------------|
|-------14-14-----14-14-----14-14-----14|--14----14-14----14-14----14-16p14---|
|-14h16----14h16-----14h16-----14h16----|--14h16----14h16----14h16----------16|
|---------------------------------------|-------------------------------------|
|---------------------------------------|-------------------------------------|



|------------------|-----------------|-------------------|-------------------|
|------------------|-----------------|-------15--15--17--|-------------------|
|-14v-16^-------14v|--------------14-|-14-14h16--14--16^v|-------------------|
|----------14-16---|---16\/X---14h16-|-14----------------|-------------------|
|------------------|-----------------|-------------------|-------------------|
|------------------|-----------------|-------------------|-------------------|
                                                                
then chorus then go into

outro
|----------------------|---------------|
|----------------------|---------------|
|--0--3\2--0-----------|--3\2--0--0----|
|--0--3\2--0---------0-|--3\2--0--0----|
|--------------1h2-----|---------------|
|----------------------|----------3----|
                               


rhy. fig. 1(under solo)
|------------------------|------------------|------------------|-------------------|
|------------------------|------------------|------------------|-------------------|
|----------------------4-|--4-------------2-|--2-----2-------2-|--2-------2--------|
|--5----------5--------3-|--3-------------2-|--2-4p2-2--4----2-|--2--4p2--2--4---5-|
|-----7-------5---7------|----------------0-|--------0-------0-|----------0------5-|
|---------3--------------|------------------|------------------|-----------------3-|



|--------------------|----------------|----------------|-----------------|---------------|
|--------------------|----------------|----------------|-----------------|---------------|
|------------------2-|--2-----2-----2-|--2-------2---2-|--2-------2------|-------------2-|
|--5--------5------2-|--2-4p2-2-----2-|--2-4p2---2-4-2-|--2--4p2--2-4--5-|--5-----5----2-|
|--5--7p5---5---7--0-|--------0-3-4-0-|----------0---0-|----------0----5-|--5-7p5-5-7--0-|
|-----------3--------|----------------|----------------|---------------3-|--------3------|



|--------------------|----------------|----------------|------------------------|
|--------------------|----------------|----------------|------------------------|
|--2-------2-------2-|--2------2-----2|--2-----2-------|------------------------|
|--2--4p2--2-------2-|--2-4p2--2-4---2|--2-4p2-2-4--5--|--5---------5---------4-|
|----------0--3-4--0-|---------0-----0|--------0----5--|--5--7p5----5--7------4-|
|--------------------|----------------|-------------3--|------------3---------2-|



|----------------|------------------|---------------|----------------|-----------------|
|----------------|------------------|---------------|----------------|-----------------|
|--------------2-|--2-----2-------2-|--2-----2----5-|--5-----------2-|-2-----2-------7-|
|--4---5---5---2-|--2-4p2-2--4----2-|--2-4p2-2-4--5-|--5---5---5---2-|-2-4p2-2-5--6--7-|
|--4---5---5---0-|--------0-------0-|--------0----3-|--3---5---5---0-|---------3--4--5-|
|--2---3---3-----|------------------|---------------|------3---3-----|-----------------|



Fill 1
|---------------3-|
|---------------3-|
|-----------------|
|---5----5--------|
|-----7----5-7----|
|-----------------|

Fill 2
|----------------0-|--2---3---4--0---|
|------------------|-----------------|
|--------------0h1-|--2---3---4----2-|
|---2-----2--------|---------------2-|
|-----4---2--4-----|---------------0-|
|-------0----------|-----------------|

[/tab]
-chris keckeissen AIM: fullmetalw email:E_Is_728@yahoo.com
Comments