Lynyrd Skynyrd - Tuesdays Gone Chords & Tabs

 

Tuesdays Gone Chords & Tabs

Lynyrd Skynyrd Chords & Tabs

Version: 4 Type: Tab 0 ratings
1 star 2 stars 3 stars 4 stars 5 stars
comments

Tuesdays Gone Tab

	     Tuesdays Gone  Lynyrd Skynyrd
-------------------------------------------------------------------------------

Tabbed by:Kevin
Email:christainkid316@hotmail.com

Tuning:normal
[ Tab from: http://www.guitartabs.cc/tabs/l/lynyrd_skynyrd/tuesdays_gone_tab_ver_4.html ]
e|-9--9-10--9---7--9--77--5--7-9--2---3-5-7-9--9-10-9-7-0-7-7---0----0----0-------------------------------------------|
B|--------------------------------------------------------------------------------3----3----3-------------------------|
G|-------------------------------------------------------------------------------------------------4~----24~---------|
D|------------------------------------------------------------------------------------------------------------------2-|
A|--------------------------------------------------------------------------------------------------------------------|
E|--------------------------------------------------------------------------------------------------------------------|

e|-----------------------------------------------------------------------------------------------------0----0----0----|
B|---------------------------------------------------------------------------------------------------------3----3---3-|
G|-4~--2--2--4-----------4~--2---4~-----4~--2-24~----------------2--4---6----4~--------------------------------------|
D|----------------4--5-7------------------2------------------------2-----4--------------------------------------------|
A|-----------------------------------------------------------4/5---2-----4-----------------2-2-0----------------------|
E|--------------------------------------------------------------------------------------------------------------------|
It then goes into some chords that are simple but im not sure which ones they are yet. Have trouble= email me

| /  slide up
| ~  vibrato
Comments