Lynyrd Skynyrd - Tuesdays Gone Chords & Tabs

 

Tuesdays Gone Chords & Tabs

Lynyrd Skynyrd Chords & Tabs

Version: 2 Type: Tab 0 ratings
1 star 2 stars 3 stars 4 stars 5 stars
comments

Tuesdays Gone Tab

   
"Tuesday's Gone"					
Lynyrd Skynyrd	 	
toughlikepopeye@hotmail.com


It took me awhile to figure all this out, but i'm almost positive its all correct.  

Key:

`		bend up 
^		bend up and down 			
/ 		legato slide up
\		legato slide down 	
>		hammer-on
<		pull-off	

INTRO: 
	(guitar 1, electric)								    
||-9---9-10-9-7---9-7-7-5--7-9------5-7-5-7-9---9-10-9-9-7---9-7------12-10-12-10-12-10-12-10-|
||-----------------------------7--------------------------------------------------------------|
||--------------------------------------------------------------------------------------------|
||--------------------------------------------------------------------------------------------|
||--------------------------------------------------------------------------------------------|
||--------------------------------------------------------------------------------------------|
||	(guitar 2, acoustic) 		                              	     	     	      |
||-0--0-0-0---0-0---0--2--2-2-2--2-2---------0--0-0-0---0-0------------0-----0-----0-----0----|
||-2--2-2-2---0-0---0--2--2-2-2--3-3---------2--2-2-2---0-0--------------3-----3-----3-----3--|
||-2--2-2-2---1-1---1--2--2-2-2--2-2---------2--2-2-2---1-1-----------------------------------|
||-2--2-2-2---2-2---2--4--4-4-4--0-0---------2--2-2-2---2-2-----------------------------------|
||-0--0-0-0---2-2---2--4--4-4-4--0-0---------0--0-0-0---2-2----------0-----0-----0-----0------|
||-0--0-0-0---0-0---0------------------------0--0-0-0---0-0-----------------------------------|
||	(guitar 3, electric)								      |
||--------------------------------------------------------------------------------------------|
||-2--2-3-2--0--0-2-0-------0--------------------2--------2/3---------------------------------|
||-2--2-4-2--1--1-2-1--2--2-1-2------------------2--------2/4---------------------------4^^-2-|
||---------------------4--4---4--4------------------------------------------------------------|
||-------------------------------5------------------------------------------------------------|
||--------------------------------------------------------------------------------------------|

	(guitar 3 cont.)
|--------------------------------------------------------------------------------------------||
|------------------------------------5--5---------------------5-3---5-3---5-3---5-3----------||
|-4^^-----4^^`----2--------------2>4-4^-6\4-2----4-4---4-------------------------------------||
|----2--------4---------------2>4-------------2--4-4>6-4-------------------------------------||
|-------------------5\4/5--2>4---------------------------------------------------------------||
|--------------------------------------------------------------------------------------------||
|	(guitar 2)								             ||
|-0--0-0-0---0-0---0--2--2-2-2--2-2-----0--0-0-0---0-0------0-----0-----0-----0--------------||
|-2--2-2-2---0-0---0--2--2-2-2--3-3-----2--2-2-2---0-0--------3-----3-----3-----3--2-3-5-2---||
|-2--2-2-2---1-1---1--2--2-2-2--2-2-----2--2-2-2---1-1-------------------------------------2-||
|-2--2-2-2---2-2---2--4--4-4-4--0-0-----2--2-2-2---2-2---------------------------------------||
|-0--0-0-0---2-2---2--4--4-4-4--0-0-----0--0-0-0---2-2----0-----0-----0-----0----------------||
|-0--0-0-0---0-0---0--------------------0--0-0-0---0-0---------------------------------------||
| 	(guitar 1)						 	   	             ||
|-0----------0-----------2----------2----------0----------0---12-10-12-10-12-10--9-10-12-9---||
|-2----------0-----------2----------3----------2----------0-------------------------------10-||
|-2----------1-----------2----------2----------2----------1----------------------------------||
|--------------------------------------------------------------------------------------------||
|--------------------------------------------------------------------------------------------||
|--------------------------------------------------------------------------------------------||


VERSE 1: 
	(guitar 3)
||-------------------------------------3<2>3<2-----------------------------------------------||
||-------2---------------------------3--------3-------2-------------5-3--5-3--5-3--5-3-------||
||-----2--2--------1---------2-----2----------------2--2--------1----------------------------||
||---2-----2-----2--2------4--4--0----------------2-----2-----2--2---------------------------||
||-0-----------2-----2---4-----4----------------0-----------2-----2--------------------------||
||-----------0---------2----------------------------------0----------------------------------||
||	(guitar 2)                        			                             ||
||-0--0-0-0---0-0---0--2--2-2-2--2-2----0--0-0-0---0-0------0-----0-----0-----0--------------||
||-2--2-2-2---0-0---0--2--2-2-2--3-3----2--2-2-2---0-0--------3-----3-----3-----3--2-3-5-2---||
||-2--2-2-2---1-1---1--2--2-2-2--2-2----2--2-2-2---1-1-------------------------------------2-||
||-2--2-2-2---2-2---2--4--4-4-4--0-0----2--2-2-2---2-2---------------------------------------||
||-0--0-0-0---2-2---2--4--4-4-4--0-0----0--0-0-0---2-2----0-----0-----0-----0----------------||
||-0--0-0-0---0-0---0-------------------0--0-0-0---0-0---------------------------------------||
|| 	(guitar 1)						 	                     ||
||-0----------0----------2----------2----------0----------0---12-10-12-10-12-10--9-10-12-9---||
||-2----------0----------2----------3----------2----------0-------------------------------10-||
||-2----------1----------2----------2----------2----------1----------------------------------||
||-------------------------------------------------------------------------------------------||
||-------------------------------------------------------------------------------------------||
||-------------------------------------------------------------------------------------------||

Train  roll  on,  on  down the line, Won't you please take me far away?


	(guitar 3)
||-------------------------------------3<2>3<2-----------------------------------------------||
||-------2---------------------------3--------3-------2-------------5-3--5-3--5-3--5-3-------||
||-----2--2--------1---------2-----2----------------2--2--------1----------------------------||
||---2-----2-----2--2------4--4--0----------------2-----2-----2--2---------------------------||
||-0-----------2-----2---4-----4----------------0-----------2-----2--------------------------||
||-----------0---------2----------------------------------0----------------------------------||
||	(guitar 2)									     ||
||-0--0-0-0---0-0---0--2--2-2-2--2-2---------0--0-0-0---0-0------------0-----0-----0-----0---||
||-2--2-2-2---0-0---0--2--2-2-2--3-3---------2--2-2-2---0-0--------------3-----3-----3-----3-||
||-2--2-2-2---1-1---1--2--2-2-2--2-2---------2--2-2-2---1-1----------------------------------||
||-2--2-2-2---2-2---2--4--4-4-4--0-0---------2--2-2-2---2-2----------------------------------||
||-0--0-0-0---2-2---2--4--4-4-4--0-0---------0--0-0-0---2-2----------0-----0-----0-----0-----||
||-0--0-0-0---0-0---0------------------------0--0-0-0---0-0----------------------------------||
|| 	(guitar 1)						 	                     ||
||-0----------0----------2----------2----------0----------0--------12-10-12-10-12-10-12-10---||
||-2----------0----------2----------3----------2----------0----------------------------------||
||-2----------1----------2----------2----------2----------1----------------------------------||
||-------------------------------------------------------------------------------------------||
||-------------------------------------------------------------------------------------------||
||-------------------------------------------------------------------------------------------||

Now i feel the wind blow, outside my door, I'm leaving my woman at home

[ Tab from: http://www.guitartabs.cc/tabs/l/lynyrd_skynyrd/tuesdays_gone_tab_ver_2.html ]
CHORUS: (basically i showed where the chords change)
	(guitar 3)
||-------------------------------------------------------------------------------------------||
||-------------------------------------------------------------------------------------------||
||-2-----------4------------------7-----------2-------------1----------------7---------------||
||-2-----------5------------------7-----------2-------------2----------------7---------------||
||-0-----------5------------------5-----------0-------------2----------------5---------------||
||-0-----------3------------------5-----------0-------------0----------------5---------------||
||	(guitar 2)									     ||
||-0-----------3------------------2-----------0-------------0----------------2--3---3---3----||
||-2-----------0------------------3-----------2-------------0----------------3----0---0---0--||
||-2-----------0------------------2-----------2-------------1----------------2---------------||
||-2-----------0------------------0-----------2-------------2----------------0---------------||
||-0-----------2------------------0-----------0-------------2----------------0---------------||
||-------------3-----------------------------------------------------------------------------||
|| 	(guitar 1)						 	            	     ||
||-0-----------3------------------2--2-2--2-0-0-------------0----------------2---------------||
||-2-----------0------------------3--3-3--3-2-2-------------0----------------3---------------||
||-2-----------0------------------------------2-------------1----------------2---------------||
||-2-----------0------------------------------2-------------2----------------0---------------||
||-2-----------2------------------------------0-------------2----------------0---------------||
||-------------3-----------------------------------------------------------------------------||

  Tuesdays    gone   with  the    wind, 	    My   babys   gone   with    the    wind


BRIDGE:
	(guitar 3)
||-------------------------------------------------------------------------------------------||
||-------------------------------------------------5--5--------------------------------------||
||-4^^^-2--4^-2-4`4---4^^`---2-----------------2>4-4^-6\4-2--4-4---4--5-3--5-3--5-3--5-3-----||
||-----------------2------4-----------------2>4------------2-4-4>6-4-------------------------||
||----------------------------5\4/5\4/5--2>4-------------------------------------------------||
||-------------------------------------------------------------------------------------------||
||	(guitar 2)									     ||
||-0--0-0-0---0-0---0--2--2-2-2--2-2----0--0-0-0---0-0------0-----0-----0-----0--------------||
||-2--2-2-2---0-0---0--2--2-2-2--3-3----2--2-2-2---0-0--------3-----3-----3-----3--2-3-5-2---||
||-2--2-2-2---1-1---1--2--2-2-2--2-2----2--2-2-2---1-1-------------------------------------2-||
||-2--2-2-2---2-2---2--4--4-4-4--0-0----2--2-2-2---2-2---------------------------------------||
||-0--0-0-0---2-2---2--4--4-4-4--0-0----0--0-0-0---2-2----0-----0-----0-----0----------------||
||-0--0-0-0---0-0---0-------------------0--0-0-0---0-0---------------------------------------||
|| 	(guitar 1)						 	            	     ||
||-0----------0----------2----------2----------0----------0---12-10-12-10-12-10--9-10-12-9---||
||-2----------0----------2----------3----------2----------0-------------------------------10-||
||-2----------1----------2----------2----------2----------1----------------------------------||
||-------------------------------------------------------------------------------------------||
||-------------------------------------------------------------------------------------------||
||-------------------------------------------------------------------------------------------||


VERSE 2: (same as verse 1)

And I don't know, where i'm going, I just want to be left alone

Well when this train ends, I'll try again, but i'm leaving my woman at home


CHORUS: (same idea behind other chorus)

A		G		D    A		G		D
Tuesdays gone with the wind, Tuesdays gone with the wind

A		G		D    A		E	  	D 
Tuesdays gone with the wind, My baby's gone with the wind


INTERLUDE: 

Piano does it's thing
	       
|-----------------------------------------------------------------5--12`--12-|
|-------------------------------------------------------------7\5------------|
|-4^5-2--4^^---4`4^^----2-----------------4/6-4-2-4-4/6-4-2>4----------------|
|------------2------4-----4>2---------2>4------------------------------------|
|-----------------------------5---2>4----------------------------------------|
|----------------------------------------------------------------------------|


VERSE 3: (same as other verses)

Train roll on, many miles from my home, See I'm riding my blues away

Tuesday you see, she had to be free, but somehow i've got to carry on


CHORUS: (same as other chorus)

A		G		D    A		G		D
Tuesdays gone with the wind, Tuesdays gone with the wind

A		G		D    A		E	  	D 
Tuesdays gone with the wind, My baby's gone with the wind


SOLO/OUTRO: (guitar 3)
|--------------------------------------------------------------------------------------|
|-12^^^-10--12^^^-12---------10-12-10-----10-9>10<9-7---5--10/9-9/7-7/5-5/3-2>3<2------|
|--------------------9--9>11----------11------------------------------------------4--2-|
|--------------------------------------------------------------------------------------|
|--------------------------------------------------------------------------------------|
|--------------------------------------------------------------------------------------|

|--------------------------------------------------------------------------------------|
|--------------------------------------------------------5-7/10-10/12-----10------12---|
|---2-4-4^^---------2>4<2----2-2----2-2------------2>4/6-------------------------------|
|-4---------2---2>4-------4------4------4------2>4-------------------------------------|
|------------------------------------------2>4-----------------------------------------|
|--------------------------------------------------------------------------------------|

|-----12----------------------------------------------------------17-------------------|
|-12^----12^-12-----12-12^-12-10----10/19-19-19-17/19-19-19-19\17----19\17----17-------|
|--------------------------------11----------------------------------------18----17\16-|
|--------------------------------------------------------------------------------------|
|--------------------------------------------------------------------------------------|
|--------------------------------------------------------------------------------------|

|----------------------------------------------------------17-17------17-17-----17-17--|
|------------------17--17--17--------------------------17^--------17^-------17^--------|
|-14-------14--16--16^-16^-16^--------16`-16-14----14----------------------------------|
|----14>16---------------------14`--------------16-------------------------------------|
|--------------------------------------------------------------------------------------|
|--------------------------------------------------------------------------------------|

|--------------------------------------------------------------------------------------|
|-17^-17----17-----------17--17-17----17--------------17/19-19-19-19-19-19-17/19-19-19-|
|--------16-----14---16--16^----16^---16^-16/14----14----------------------------------|
|-----------------------------------------------16-------------------------------------|
|--------------------------------------------------------------------------------------|
|--------------------------------------------------------------------------------------|
							   v this part is gradually fading out v
|----------------17-------17--------17-|-----------------------------------------------|
|-19-19-19-19\17----19\17-----19\17----|-19\17----17-----------------------17-17-17----|
|--------------------------------------|-------18----17\16-14-------14--16-16^16^16^---|
|--------------------------------------|----------------------14>16-----------------14-|
|--------------------------------------|-----------------------------------------------|
|--------------------------------------|-----------------------------------------------|
Comments