Lynyrd Skynyrd - The Ballad Of Curtis Loew Chords & Tabs

 

The Ballad Of Curtis Loew Chords & Tabs

Lynyrd Skynyrd Chords & Tabs

Version: 2 Type: Tab 0 ratings
1 star 2 stars 3 stars 4 stars 5 stars
comments

The Ballad Of Curtis Loew Tab

			Lynyrd Skynrd	
          The Ballad of Curtis Loew (SOLO)(OUTRO)

			SOLO
E)--/12~~~~~14/16--14~~~~~~~~/16/14-12--------------------
B)--------------------------------------14-----------------
G)-----------------------------------------12/11-9-6-4-----
D)-----------------------------------------------------6\--
A)---------------------------------------------------------
E)---------------------------------------------------------


E)---------------------------------------------------------
B)-------------------------------------------------5~~~~~~-
G)--------6---------------------------------6----4---------
D)--6\4/6---/6--/6--4~~~~~/6-/6/4-2------------------------
A)---------------------------------0-2---------------------
E)------------------------------------3/4-0----------------


E)-------9---------------------------------------9---------
B)-/9\7/9--7/9-7~~~~-/8\7/8\7-5-----5-5~~~---8/9-----------
G)-------------------------------5-4-----------------------
D)---------------------------------------------------------
A)---------------------------------------------------------
E)---------------------------------------------------------


E)--12~~~---19-0/16-0-14\12--------------------------------
B)--------0-----------------12--12-------------------------
G)---------------------------------12\11-9-6-4-------------
D)---------------------------------------------7/-2\-------
A)---------------------------------------------------------
E)---------------------------------------------------------
	Hold            Release
[ Tab from: http://www.guitartabs.cc/tabs/l/lynyrd_skynyrd/the_ballad_of_curtis_loew_tab_ver_2.html ]
       H--------------------R    H----------R
E)---------------------------------------------------------
B)--------------17----------------------12-----------------
G)--16fb-----------16------(16)-11fb-11----(11)9h11-11fb---
D)---------------------------------------------------------
A)---------------------------------------------------------
E)---------------------------------------------------------

     H---------------------R
E)---------------------------------------------------------
B)--------------17-------------17--------------12----------
G)-16fb------------16-----(16)-----------------------------
D)---------------------------------------------------------
A)---------------------------------------------------------
E)---------------------------------------------------------

			   H-------------------R
E)-12--9---------------------------------------------------
B)-12-----12--------------------------17-------------------
G)-----------11fbr9~~~~~~--16------------16---(16)---------
D)---------------------------------------------------------
A)---------------------------------------------------------
E)---------------------------------------------------------


E)----------------------------------12---------9-7---------
B)------------------------------/12----14-12\/9----8h7-5---
G)------9--11fbr(11)/13---15~~~~---------------------------
D)-9-11----------------------------------------------------
A)---------------------------------------------------------
E)---------------------------------------------------------


E)---------------------------------------------------------
B)---------------------------------------------------------
G)--6--4---------------------------------------------------
D)-------X--X--5/6-2---------------------------------------
A)-------------------4-2-----------------------------------
E)-----------------------4-2-------------------------------

			OUTRO
E)---------------------------------------------------------
B)----------------------------7-----7----------------------
G)--/13----13/11----/11~~~~~----7-----7--9--11/13--(13)/---
D)---------------14---------------7------------------------
A)---------------------------------------------------------
E)---------------------------------------------------------

This is a pretty cool little solo that is well worth learning.
Good luck!
Comments