Lynyrd Skynyrd - Sweet Home Alabama Chords & Tabs

 

Sweet Home Alabama Chords & Tabs

Lynyrd Skynyrd Chords & Tabs

Version: 7 Type: Tab 0 ratings
1 star 2 stars 3 stars 4 stars 5 stars
comments

Sweet Home Alabama Tab

E-17b-15-14---------10~-10-10-10----8---------------------------------3-5-3-
B--------------15---------------10----11-10-8-10----8-8-10--10b12-3/5-------
G------------------------------------------------9---------9----------------
D---------------------------------------------------------------------------
A---------------------------------------------------------------------------
E---------------------------------------------------------------------------



E--5b7----------3-5---3--5b6b5--3--3--------3----------------------
B-------3--4--5-----5----------------5/3/5-----3-------------------
G------------------------------------------------4h5p4-------------
D------------------------------------------------------5-0--0bd0---
A------------------------------------------------------------------
E------------------------------------------------------------------
[ Tab from: http://www.guitartabs.cc/tabs/l/lynyrd_skynyrd/sweet_home_alabama_tab_ver_7.html ]
Comments